Misc Unsigned Bands - Papur Bag Soldiers - The New Chords & Tabs

 

Papur Bag Soldiers - The New Chords & Tabs

Misc Unsigned Bands Chords & Tabs

Version: 1 Type: Tab 0 ratings
1 star 2 stars 3 stars 4 stars 5 stars
comments

Papur Bag Soldiers - The New Tab

   
we are a real band from Crusces New mexico.
We just started so we hope you like the song.


verse
                    3 times
e----------------    
B----------------
G----------------
D----------------
A-2---2h3--------
E---0-----3------
                    3 times  
e----------------     
B----------------
G----------------
D-2---2h3--------
A---0-----3------
E----------------

Verse 4 times


Pre chorus                                       1 time
e---------------------------------------------
B---------------------------------------------
G---------------------------------------------
D-5---5-7-----------3-----3-5--2-----2-3------
A----------5---5-7------0----------0----------
E---0--------0--------0----------0------------
[ Tab from: http://www.guitartabs.cc/tabs/m/misc_unsigned_bands/papur_bag_soldiers_the_new_tab.html ]
Chorus
                                                                       2 times
e----------------------------------------------------------------------------
B----------------------------------------------------------------------------
G----------------------------------------------------------------------------
D----------------------------------------------------------------------------
A-333333333333333333-222222222222222222-777777777777777777-333333333333333333
E-333333333333333333-222222222222222222-777777777777777777-333333333333333333

verse 4 times

Pre chorus

chorus

Solo
                                                               3 times
e-2222222222-5555555555-3333333333-7777-99---------------------
B--------------------------------------------------------------
G--------------------------------------------------------------
D--------------------------------------------------------------
A--------------------------------------------------------------
E--------------------------------------------------------------

chorus



this is one of my songs hope it sounds good. oh, turn your amp to full distortion.
Comments