Misc Unsigned Bands - Overtheedge - Ill Do Anything Chords & Tabs

 

Overtheedge - Ill Do Anything Chords & Tabs

Misc Unsigned Bands Chords & Tabs

Version: 1 Type: Tab

Overtheedge - Ill Do Anything Tab

   
-------------------------------------------------------------------------------
                        I'LL DO ANYTHING - OVERTHEEDGE 
-------------------------------------------------------------------------------
Tabbed by: JoshDropD
Email: josh.defibaugh.g@gmail.com

Tuning: Standard

Intro/Verse
e|----------------------------------|
B|----------------------------------|
G|----------------------------------|
D|-----2-3-----2-3-----2-3-----2-3--|
A|-0-0-------------3-3--------------|
E|---------1-1-------------3-3------|x12

Rhythm Guitar 0:16
e|--------------|
B|--------------|
G|-22----55-----|
D|-22-33-55-55--|
A|-00-33-33-55--|
E|----11----33--|x6

Pre-Chorus 0:33
e|---------------------|
B|---------------------|
G|-2222------5555------|
D|-2222-3333-5555-5555-|
A|-0000-3333-3333-5555-|
E|------1111------3333-|x2

Chorus
e|---------------------------------|
B|---------------------------------|
G|---------5-5-5-5-----------------|
D|-3-3-3-3-5-5-5-5-5-5-5-5-5-5-5-5-|
A|-3-3-3-3-3-3-3-3-5-5-5-5-5-5-5-5-|
E|-1-1-1-1---------3-3-3-3-3-3-3-3-|
[ Tab from: http://www.guitartabs.cc/tabs/m/misc_unsigned_bands/overtheedge_ill_do_anything_tab.html ]
Repeat Intro
e|----------------------------------|
B|----------------------------------|
G|----------------------------------|
D|-----2-3-----2-3-----2-3-----2-3--|
A|-0-0-------------3-3--------------|
E|---------1-1-------------3-3------|x12

Rhythm Guitar 1:18
e|--------------|
B|--------------|
G|-22----55-----|
D|-22-33-55-55--|
A|-00-33-33-55--|
E|----11----33--|x6


Pre-Chorus 1:34
e|---------------------|
B|---------------------|
G|-2222------5555------|
D|-2222-3333-5555-5555-|
A|-0000-3333-3333-5555-|
E|------1111------3333-|x2

Chorus 1:40
e|---------------------------------|
B|---------------------------------|
G|---------5-5-5-5-----------------|
D|-3-3-3-3-5-5-5-5-5-5-5-5-5-5-5-5-|
A|-3-3-3-3-3-3-3-3-5-5-5-5-5-5-5-5-|
E|-1-1-1-1---------3-3-3-3-3-3-3-3-|

Repeat Verse at 2:02 with rhythm guitar until the end. 
e|----------------------------------|
B|----------------------------------|
G|----------------------------------|
D|-----2-3-----2-3-----2-3-----2-3--|
A|-0-0-------------3-3--------------|
E|---------1-1-------------3-3------|

Rhythm Guitar
e|--------------|
B|--------------|
G|-22----55-----|
D|-22-33-55-55--|
A|-00-33-33-55--|
E|----11----33--|