Misc Unsigned Bands - Our Last Night - The Truth We Cant Handle Chords & Tabs

 

Our Last Night - The Truth We Cant Handle Chords & Tabs

Misc Unsigned Bands Chords & Tabs

Version: 1 Type: Bass Tab 0 ratings
1 star 2 stars 3 stars 4 stars 5 stars
comments

Our Last Night - The Truth We Cant Handle Bass Tab

   
"The Truth we Cant Handle"- last night our

Standard Tuning ( E,A,D,G)

Tabbed By Mikee Morales (AIM:funkuhdizzle)

G:---------------------------------------------| x4
D:---------------------------------------------|
A:---------------------------------------------|
E:-9>>>-5>>>-----------------------------------|

(bass solo)
G:--------------------------------------------|
D:--------------------------------------------|
A:----11-777-9-7-6-77-0>>-2--3----------------|
E:--9-----------------------------------------|

G:--------------------------------------------|
D:--------------------------------------------|
A:--------------------------------------------|
E:-9>>>-5>>>----0-----------------------------|

G:--------------------------------------------|
D:--------------------------------------------|
A:--------------------------------------------|
E:-5>>>-9>>>-5>>>-----------------------------|

G:---------------------------------------------| x5
D:---------------------------------------------|
A:---------------------------------------------|
E:-9>>>-5>>>-----------------------------------|
[ Tab from: http://www.guitartabs.cc/tabs/m/misc_unsigned_bands/our_last_night_the_truth_we_cant_handle_btab.html ]
G:---------------------------------------------| x2
D:---------------------------------------------|
A:--7-----7--9--0---2--------------------------|
E:-----11--------------------------------------|

G:--------------------------------------------|
D:--------------------------------------------|
A:--------------------------------------------|
E:-0>>>>>>------------------------------------|

G:--------------------------------------------|x4
D:--------------------------------------------|
A:--------------------------------------------|
E:-9>>>-5>>>----------------------------------|

G:---------------------------------------------| x2
D:---------------------------------------------|
A:--0005553330007775554------------------------|
E:---------------------------------------------|

G:--------------------------------------------|x4
D:--------------------------------------------|
A:-00-0-00-0-00-0-00-2------------------------|
E:--------------------------------------------|

     (finishing song)
G:--------------------------------------------|x6
D:--------------------------------------------|
A:--------------------------------------------|
E:-9>>>-5>>>----------------------------------|

If my tabs are any good, tell me about them cause i want to know the truth..my sn is 
or my email is teamkinky123@Yahoo.com
Comments