Misc Unsigned Bands - Of All Things - The Best Unperfect Chords & Tabs

 

Of All Things - The Best Unperfect Chords & Tabs

Misc Unsigned Bands Chords & Tabs

Version: 1 Type: Tab 0 ratings
1 star 2 stars 3 stars 4 stars 5 stars
comments

Of All Things - The Best Unperfect Tab

this is a new band that was formed just a couple of weeks ago... they are a 3 person
band and they are already getting known this is a great song by them called

p.m. = palm mute
/= slide down

intro (me)
e-----------------------------------------------------------------------------|
b-----------------------------------------------------------------------------|
g-----------------------------------------------------------------------------|
D-----------------------------------------------------2-2-2-2-2-4-4-4-4-2-2-0-|
A---------2-2-2-2-2-4-4-4-4-2-2-0-0-0-0-0 X2 0-0-0-0-0------------------------|
E0-0-0-0-0--------------------------------------------------------------------|
[ Tab from: http://www.guitartabs.cc/tabs/m/misc_unsigned_bands/of_all_things_the_best_unperfect_tab.html ]
Chorus ( both of us )
e----------------------------------------------------------------------------|
b----------------------------------------------------------------------------|
g----------------------------------2-2-2-2-2-2-------------------------------|
D----------4-4-4-4-4-6-6-6-6-6-4-4-4-2-2-2-2-2-------------------------------|
A--2-2-2-2-2-2-2-2-2-4-4-4-4-4-2-2-2-0-0-0-0-0-------------------------------|
E--0-0-0-0-0-------------------------0-0-0-0-0-------------------------------|

thats all that we went over so far, but here is the verse...

e-----------------------------------------------------------------------------|
b-----------------------------------------------------------------------------|
g-----------------------------------------------------------------------------|
D---------------------------------------------------------------6-6-6-6-6-6---|
A--2-2-2-2-2--6-6-6-6-6-6-6-6-6-7-7-7-7-7-7-7-7-7-6-6-6-6-6-6-6-4-4-4-4-4-4---|
E--0-0-0-0-0--4-4-4-4-4-4-4-4-4-5-5-5-5-5-5-5-5-5-4-4-4-4-4-4-4---------------|

verse continued
e----------------------------------------------------------------------------|
b----------------------------------------------------------------------------|
g----------------------------------------------------------------------------|
D----------------------------------------------------------------------------|
A-4-4-4-4-4-4-4-4------------------------------------------------------------|
E-2-2-2-2-2-2-2-2------------------------------------------------------------|

more of the tab to come
Comments