Misc Unsigned Bands - Ocean Bottomless - Here With Me Chords & Tabs

 

Ocean Bottomless - Here With Me Chords & Tabs

Misc Unsigned Bands Chords & Tabs

Version: 1 Type: Tab 0 ratings
1 star 2 stars 3 stars 4 stars 5 stars
comments

Ocean Bottomless - Here With Me Tab

Hey This is an origional song
From an upcoming band
Please Put it on there is a whole school dieing to learn it

This is the guitar part for guitar 2
Guitar 1 can just play a riff in C
Intro
-------------------------------------------------------------------------|
-------------------------------------------------------------------------|
-9-9--9-9-9-9------------------------------------------------------------|
-9-9--9-9-9-9--9-9--9-9-9-9---12-12--12-12-12-12--5--5-5-5-5-------------|
-7-7--7-7-7-7--9-9--9-9-9-9---12-12--12-12-12-12--5--5-5-5-5-------------|
---------------7-7--7-7-7-7---10-10--10-10-10-10--3--3-3-3-3-------------|
Repeat untill solo^

Solo
This uses a wah wah peddle and repeats 2 times
12-15-12---------------------------------------------------------15-12f-|
---------15-12----------------------------------------------12-15-------|
---------------12-14----------------------------------14-12-------------|
---------------------14-12-----------------------12-14------------------|
--------------------------12-14f-----------14-12------------------------|
----------------------------------12-15-12------------------------------|
[ Tab from: http://www.guitartabs.cc/tabs/m/misc_unsigned_bands/ocean_bottomless_here_with_me_tab.html ]
-------------------------------------------------------------------------|
-------------------------------------------------------------------------|
-9-9--9-9-9-9------------------------------------------------------------|
-9-9--9-9-9-9--9-9--9-9-9-9---12-12--12-12-12-12--5--5-5-5-5-------------|
-7-7--7-7-7-7--9-9--9-9-9-9---12-12--12-12-12-12--5--5-5-5-5-------------|
---------------7-7--7-7-7-7---10-10--10-10-10-10--3--3-3-3-3-------------|
Repeat untill inturlude

Interlude is the Penatonic scale in C

This sounds best with a wah wah peddle every third strum
-------------------------------------------------------------------------|
-------------------------------------------------------------------------|
-9-9--9-9-9-9------------------------------------------------------------|
-9-9--9-9-9-9--9-9--9-9-9-9---12-12--12-12-12-12--5--5-5-5-5-------------|
-7-7--7-7-7-7--9-9--9-9-9-9---12-12--12-12-12-12--5--5-5-5-5-------------|
---------------7-7--7-7-7-7---10-10--10-10-10-10--3--3-3-3-3-------------|
Begins to fade


Have fun, this is a good song that ultimate-guitar has before anyone else
You all will hear it on the radio soon!
Thanks
~SlashFan1620
Comments