Misc Unsigned Bands - Noise Method - Dont Go Away Chords & Tabs

 

Noise Method - Dont Go Away Chords & Tabs

Misc Unsigned Bands Chords & Tabs

Version: 1 Type: Bass Tab

Noise Method - Dont Go Away Bass Tab

Don't go Away
Standard Tuning EADG
Transcribed by:roy pan: bassist of Noise Method

Intro (x4)
G-------------7h10-7-------------------|
D---------7-8---------8-7---(7)--------|
A-----5-8-----------------8------------|
E--6-----------------------------------|


Verse(x4)
G-------------7h10-7-------------------|
D---------7-8---------8-7---(7)--------|
A-----5-8-----------------8------------|(x2)
E--6-----------------------------------|


G-------------------------------------------|
D--------7-5---------------------8----------|
A----5-5-----7-5-4-------5-5-8-----8--------|
E--6----------------6--6-------6-----6------|

with slight variations almost every time around
[ Tab from: http://www.guitartabs.cc/tabs/m/misc_unsigned_bands/noise_method_dont_go_away_btab.html ]
Chorus(x4)
G---------------------------------------------------|
D-------------8---8---8-----------------------------|
A---------------------------------------------------|
E--6-6666-6-6---6---6---6-10-10101010-8-8888-101088-|

G----------------------------------------------------------|
D-------------8---8---8------------------------------------|
A----------------------------------------------------------|
E--6-6666-6-6---6---6---6-10-10101010-13-13131313-10101313-|

Pre-Solo
G------------------------------------------------|
D------------------------8-----------8-----------|
A--------------------------8-6---------8-6-------|
E--6-xxxx-6--6-xxxx-6--6-------6---6-------6--6--|

Solo (a bunch of times)
G----7-----7----7----7---7--10---7---10---8-|
D----7-----7----7----7---8--8----8---8----8-|
A-------------------------------------------|
E--6---6-6----6---6-6-----------------------|

No bass during Bridge