Misc Unsigned Bands - No Space Left - Everyone Chords & Tabs

 

No Space Left - Everyone Chords & Tabs

Misc Unsigned Bands Chords & Tabs

Version: 1 Type: Bass Tab 0 ratings
1 star 2 stars 3 stars 4 stars 5 stars
comments

No Space Left - Everyone Bass Tab

-----------------------------------------------------------------------------
			     Everyone - No Space Left
-----------------------------------------------------------------------------

Tabbed By : Dan Risk
e-mail: bluebear909@hotmail.com

This is an up and coming band over in the States

Tuning: Standard EADG

Intro (Come in after Guitar) & Verse

G|----------------------------------------------------------------------------|
D|----------------------------------------------------------------------------|
A|----------------------------------------------------------------------------|
E|--0---0---4---5-------0---0---5---4-------0---0---4---5-------0---0---5---4-|

Bridge
[ Tab from: http://www.guitartabs.cc/tabs/m/misc_unsigned_bands/no_space_left_everyone_btab.html ]
G|---------------------------------------------------------------------------|
D|---------------------------------------------------------------------------|
A|--------0----2----4---------------0----2----4------------------------------|
E|---0-------------------------0---------------------------------------------|

Chorus is the same as Intro and Verse

Interlude
G|---------------------------------------------------------------------------|
D|---------------------------------------------------------------------------|
A|--------0----2----4---------------0----2----4------------------------------|
E|---0-------------------------0---------------------------------------------|

G|----------------------------------------------------------------------------|
D|----------------------------------------------------------------------------|
A|----------------------------------------------------------------------------|
E|--0---0---4---5-------0---0---5---4-------0---0---4---5-------0---0---5---4-|


Then into the Chorus again (x2)

If you have any comments then email me
Really easy song to play
Guitar tabs will come soon

Dan
Comments