Misc Unsigned Bands - Nevergreen - Disillusioned Chords & Tabs

 

Nevergreen - Disillusioned Chords & Tabs

Misc Unsigned Bands Chords & Tabs

Version: 1 Type: Bass Tab

Nevergreen - Disillusioned Bass Tab

   
www.nevergreenrock.com
Tabbed By : Daniel Gizinski
e-mail: Dantheman1175@aol.com
Tuning: Drop D
On the actual recording of this song, he uses a whammy bar to get the vibrato on the 
but most people don't have one, so just do finger vibrato.
G|---------------------------|
D|---------------------------|
A|-9~--------------7~-----6--|
E|---------------------------|
x2

Preverse- with drums

G|----11--9------9-7-6h7p6h7--|
D|------11--9----0-0-0-0------|
A|-9----------0h7-------------|
E|----------------------------|
Two times, then verse

Sought out by...
(this is the part with vocals)
G|---------------------------|
D|---------------------------|
A|-9~--------------7~-----6--|
E|---------------------------|
[ Tab from: http://www.guitartabs.cc/tabs/m/misc_unsigned_bands/nevergreen_disillusioned_btab.html ]
(part without vocals)
G|----11--9------9-7-6h7p6h7--|
D|------11--9----0-0-0-0------|
A|-9----------0h7-------------|
E|----------------------------|
x4

Chorusx2


G|------------------------------------------|
D|-------------------------------_----------|
A|--------------------------------4-2-------|
E|-4-4-4-4-1-1-2-2-4-4-4-4-1-1-2-------4-2--|

Post Chorusx2

G|------11---------------6-7-9-7-----------------------------------------------------|
D|--------11--9-7----8-6-------------------------------------------------------------|
A|--9-9-----77----66-----------------------------------------------------------------|
E|-----------------------------------------------------------------------------------|
Intro
Verse x4
Chorusx2
Postchorusx2
Breakdown (for the bass it is the same as post chorus)

| /  slide up
| \  slide down
| h  hammer-on
| p  pull-off
| ~  vibrato
| +  harmonic
| x  Mute note
===============================================================================