Misc Unsigned Bands - Nearfall - Once Again Chords & Tabs

 

Nearfall - Once Again Chords & Tabs

Misc Unsigned Bands Chords & Tabs

Version: 1 Type: Bass Tab 0 ratings
1 star 2 stars 3 stars 4 stars 5 stars
comments

Nearfall - Once Again Bass Tab

Nearfall - Once Again
Drop D Tuning
Check out nearfall at www.nearfallrock.com

Drums/Guitar Intro (No Bass)

Bridge
G-------------------------------------------------------------------|
D-------------------------------------------------------------------|
A----5--5--5--5-----------------------------------------------------|
D---------------------7--7--7--7------9--9--9--9------7--7--7--7----|

G-------------------------------------------------------------------|
D-------------------------------------------------------------------|
A----5--5--5--5-----------------------------------------------------|
D---------------------7--7--7--7------5--5--5--5--------7--7--7--7--|
[ Tab from: http://www.guitartabs.cc/tabs/m/misc_unsigned_bands/nearfall_once_again_btab.html ]
Breakdown
G-------------------------------------------------------------------|
D-------------------------------------------------------------------|
A---5--5--5--5--5--5--5--5--5--5--5--5--5--5--5--5------------------|   x 2
D-------------------------------------------------------------------|

Verse
G-------------------------------------------------------------------|
D-------------------------------------------------------------------|
A----x-x-5-(x4) ----------------------------------------------------| x 2
D--------------------x--x--7-(x4) ---x--x--5-(x8)-------------------|

Chorus
G-------------------------------------------------------------------|
D-------------------------------------------------------------------|
A----5--5--5--5-----------------------------------------------------| x 3
D--------------------7--7--7--7----9--9--9--9----7--7--7--7---------|

G-------------------------------------------------------------------|
D-------------------------------------------------------------------|
A----5--5--5--5-----------------------------------------------------|
D---------------------7--7--7--7------9 (hold)------7 (hold) -------|

Bridge

Verse

Chorus
D----5 (hold)--------- On the end

Guitar/Drums Intro X2

Chorus
Comments