Misc Unsigned Bands - Nation Of Damnation - Tears From Heaven Chords & Tabs

 

Nation Of Damnation - Tears From Heaven Chords & Tabs

Misc Unsigned Bands Chords & Tabs

Version: 1 Type: Tab 0 ratings
1 star 2 stars 3 stars 4 stars 5 stars
comments

Nation Of Damnation - Tears From Heaven Tab

This is a song I wrote for my band called Nation of Damnation. It is a softer song and
should sound clean. This song is very simple I'm sure you should have no trouble with
it. It starts out in a G chord, and blah-blah, just read the tab its really simple. My
name is Alex Bruno, you can e-mail me nationguitaristdamnation@yahoo.com. (This song can
be in standard tuning or in a half step.
h-hammeron
/-slide
~-bend

Riff 1
e-0------------------------0-|  Do this twice. On the 4 chords in a row, do
b-3----------------3-3-3-3-3-|  up and down strokes.
g-0-------------0--0-0-0-0-0-|
d-0------0----2----2-2-2-2-0-|
a-2----2----3------3-3-3-3-2-|
E-3--3---------------------3-|

Riff 2
e-----------------|  Play once.
b-----------------|
g----------5------|
d-3h5--5/7-5--3/5-|
a------5/7----3/5-|
E-----------------|

Riff 3
e---------------------|       Play 4 times. This sounds really cool if you throw
b---------------------|       harmonics in there.
g-7--------5/7--------|
d-5--5/7-5-3/5--------|
a----3/5-3------------|
E---------------------|
[ Tab from: http://www.guitartabs.cc/tabs/m/misc_unsigned_bands/nation_of_damnation_tears_from_heaven_tab.html ]
Riff 4
e-----------------|    Play twice. On the last chord, it sounds better if you
b-----------------|    strike it a few times with up and down strokes.
g------------5----|
d-----7----5----5-|
a---7----3------5-|
E-5-------------3-|

Riff 5
e--------------------|       Play twice.
b--------------------|
g----3---------------|
d-5--3--3-3/5--------|
a-5--1--3-3/5--------|
E-3-----1-1/3--------|

Solo
e-15-----------17-19-17-15---------12-14-----------------------------|
b----15-17-17--------------15--17--------12-14-----------------------|
g-----------------------------------------------12-15~--12-----------|
d-----------------------------------------------------------12-14-12-|
a--------------------------------------------------------------------|
E--------------------------------------------------------------------|

e--------------------|
b--------------------|
g-------10-12-10-----|
d-12/10----------12~-|
a--------------------|
E--------------------|

Later on I will advance the solo so e-mail me at nationguitaristdamnation@yahoo.com
Comments