Misc Unsigned Bands - Nation Of Damnation - Enmity Chords & Tabs

 

Nation Of Damnation - Enmity Chords & Tabs

Misc Unsigned Bands Chords & Tabs

Version: 1 Type: Tab 0 ratings
1 star 2 stars 3 stars 4 stars 5 stars
comments

Nation Of Damnation - Enmity Tab

   
This is going to be the hit song on my band's soon to be first album. I wrote this song 
the "Lord of the Flies" by William Golding because it showed me the darker side of human 
I will have lyrics for it soon. E-mail me at nationguitaristdamnation@yahoo.com if you
have any questions whatsoever.

h- hammeron
p- pull off
hp- hammeron pulloff
~- bend

1st Riff
e----------------------------------------|
b----3-------------------3---------------|
g-------2-------------------2------------|
d-0--------0--2hp3-0--0-------0--2hp3----|
a--------------------------------------3-|
E----------------------------------------|

repeat Riff 1 four times

2nd Riff
e-------------7--9--10-9-7-5-7-|
b------------------------------|
g------------------------------|
d-2-2-2-2/4--------------------|
a-3-3-3-3/5--------------------|
E------------------------------|

repeat everything on the e string twice

3rd Riff
e-------------------|   Play once.
b-7h5---------------|
g------7------------|
d---------5-6-7-7/2-|
a-------------------|
E-------------------|
[ Tab from: http://www.guitartabs.cc/tabs/m/misc_unsigned_bands/nation_of_damnation_enmity_tab.html ]
4th Riff
e-----------------------------------------|
b-----------------------------------------|
g-----------------------------------------|
d-3hp5-3hp5-3hp5-0-3hp5-3hp5-3hp5-----5-7-|
a----------------------------------3--3-5-|
E-----------------------------------------|

this is main part

Interlude:
e-----------------------------------------15-13----|
b-12-14-15-14---12---------------------15-------15-|
g-------------------14-----14--16~--14-------------|
d-----------------------16-------------------------|
a--------------------------------------------------|
E--------------------------------------------------|

play twice

Solo:
e-9hp12-9hp12-9hp12-9hp12-9hp12-9hp12-9hp12-9hp12-12hp15-12hp15-12hp15-

e-12hp15-12hp15-12hp15-12hp15-12hp15-12hp17-12hp17-12hp17-12hp17-12hp17

e-12hp17-12hp17-12hp17---------------------------------------------------|
b-----------------------12hp15-12hp15-12hp15-12hp15-12hp15-12hp15-12hp15-|

b-12hp15-12hp17-12hp17-12hp17-12hp17-12hp17-12hp17-12hp17-12hp17/0------

well thats it, e-mail me at nationguitaristdamnation@yahoo.com and tell me what you think!
Comments