Misc Unsigned Bands - My Faintless Life - Give It Up Chords & Tabs

 

My Faintless Life - Give It Up Chords & Tabs

Misc Unsigned Bands Chords & Tabs

Version: 1 Type: Bass Tab

My Faintless Life - Give It Up Bass Tab

Give It Up

Starts guitar

Intro/Break
G---------------------------------------------------------------------|
D---------------------------------------------------------------------|
A---7777777777777777-1010101010101010-55555555------------------------|
E---------------------------------------------------------------------|

Verse
G------------------------------------------|
D------------------------------------------|
A--7-------5--------3--------------3-------|
E---------7--------5-------02---3----------|
[ Tab from: http://www.guitartabs.cc/tabs/m/misc_unsigned_bands/my_faintless_life_give_it_up_btab.html ]
Chorus
G--------------------------------------------|
D--------------------------------------------|
A--77-------3-33-333----5-55-555-------------| 2x
E--------------------------------------------|

Chorus (cont.)
G-------------------------------------------------------|
D-------------------------------------------------------|
A--7-77-777--7-77-777--3-33-333--5-55-555---------------|
E-------------------------------------------------------|

End of Chorus
G--------------------------------------------|
D--------------------------------------------|
A--7-77-777--7-77-777-3-33-3--5~-------------|
E--------------------------------------------|