Misc Unsigned Bands - My Biggest Line - Its Never Getting Better Chords & Tabs

 

My Biggest Line - Its Never Getting Better Chords & Tabs

Misc Unsigned Bands Chords & Tabs

Version: 1 Type: Tab 0 ratings
1 star 2 stars 3 stars 4 stars 5 stars
comments

My Biggest Line - Its Never Getting Better Tab

   
My Biggest Line is a solo acoustic guitar project of Phil Creamer of Thirdstring.
I came across his profile on PureVolume and started loving
his music, it's very popular and he has many followers.  

---------------------------------------
Song:  It's Never Getting Better
Artist:  My Biggest Line
http://www.purevolume.com/mybiggestline
Tabbed By: hybby (iamdrew@gmail.com)
---------------------------------------

_____
Notes

Listen to the song for
the rhythm, it's easy.



_______________
Intro and Verse

e-|-----3-----3-----3---3--3--3---||
B-|-----3-----3-----3---3--3--3--o||
G-|-----0-----2-----0---0--0--0---||  Repeat throughout
D-|--0-----0-----2------0--0--0---||        verse
A-|--2-----0-----2------3--2--0--o||
E-|--3-----2-----0----------------||

     G    D/F#  Em7    C  C/B A

[ Tab from: http://www.guitartabs.cc/tabs/m/misc_unsigned_bands/my_biggest_line_its_never_getting_better_tab.html ]
______
Chorus

e-|--3----3----3---------||
B-|--3----3----3--------o||
G-|--0----2----0---------||  Repeat for entire 
D-|--2----0----0---------||       chorus
A-|--2----0----3--------o||
E-|--0----2----x---------||

    Em7  D/F#  C

I like adding a little fill on the last C,
take the 3 on the top e to a 2, and play
about with it.  Not in the song but I like 
the sound.


______
Bridge


Not sure about this...

e-|--3----3----3----3-----||
B-|--3----3----3----3----o||
G-|--0----0----0----0-----||  Repeat for entire 
D-|--2----0----0----2-----||       chorus
A-|--0----3----2----2----o||
E-|--x----x----3----0-----||



This doesn't go along with the track too much, I think he uses
different voices or something, either that or it's just my guitar.

Any corrections, please send them to me, I'd be grateful knowing how
to play it right myself.
Comments