Misc Unsigned Bands - Murgent - Gold Chords & Tabs

 

Murgent - Gold Chords & Tabs

Misc Unsigned Bands Chords & Tabs

Version: 1 Type: Tab 0 ratings
1 star 2 stars 3 stars 4 stars 5 stars
comments

Murgent - Gold Tab

Here it is.  My favorite song by the Tucson band Murgent.  I think this
is right,  If you have corrections, feel free to do so, thanks!

Artist: Murgent
Album: Street Therapy
Year: 2005
Tabbed by Rick "The Love" Dove

All of the song is distorted. PM stands for palm mute, and only do so
when the dots are under the numbers. enjoy!

intro:
e]-------------------------------------------------------------|
B]-------------------------------------------------------------|
G]-------------------------------------------------------------|
D]--555555555--------------------------------------------------|
A]--333333333-555555555-33333333333-55555555555(5)-----33-(3)--|
E]------------333333333-11111111111-33333333333(3)-----11-(1)--|
PM                                                     ..

verse(4x):
e]-------------------------------------------------------------|
B]-------------------------------------------------------------|
G]-------------------------------------------------------------|
D]--55555------------------------------------------------------|
A]--33333-33333-77777-55555-555--------------------------------|
E]--------11111-55555-33333-333--------------------------------|
PM  ..... ..... ..... .....

intro2:
e]-------------------------------------------------------------|
B]-------------------------------------------------------------|
G]-------------------------------------------------------------|
D]--555555555--------------------------------------------------|
A]--333333333-555555555-33333333333-55555555555(5)-----33-(3)--|
E]------------333333333-11111111111-33333333333(3)-----11-(1)--|
PM                                                     ..

verse(4x):
e]-------------------------------------------------------------|
B]-------------------------------------------------------------|
G]-------------------------------------------------------------|
D]--55555------------------------------------------------------|
A]--33333-33333-77777-55555-555--------------------------------|
E]--------11111-55555-33333-333--------------------------------|
PM  ..... ..... ..... .....
[ Tab from: http://www.guitartabs.cc/tabs/m/misc_unsigned_bands/murgent_gold_tab.html ]
chorus(4x):
e]-------------------------------------------------------------|
B]-------------------------------------------------------------|
G]--5555555----------------------------------------------------|
D]--5555555-5555555-3333333-5555555----------------------------|
A]--3333333-5555555-3333333-5555555----------------------------|
E]----------3333333-1111111-3333333----------------------------|

bridge:
e]-------------------------------------------------------------|
B]-------------------------------------------------------------|
G]-------------------------------------------(5)---------------|
D]--77777-55555-(3)-------------77777-55555--(5)---------------|
A]--77777-55555-(3)-------------77777-55555--(3)---------------|
E]--55555-33333-(1)-------------55555-33333--------------------|

breakdown "solo:"
e]-----------------------------------------------------------------|
B]-----------------------------------------------------------------|
G]--55555----------55555----------55555----------5-5-5-5-----------|
D]--55555-55332200-55555-55332200-55555-55332200-5-5-5-5-55332200--|
A]--33333----------33333--------- 33333----------3-3-3-3-----------|
E]-----------------------------------------------------------------|
PM  .....          .....          .....          . . . .

breakdown cont.
e]--------------------------------------------------------------------|
B]--------------------------------------------------------------------|
G]--55555----------55555----------55555----------5-5-5-5----------(5)-|
D]--55555-55332200-55555-55332200-55555-55332200-5-5-5-5-55332200-(5)-|
A]--33333----------33333----------33333----------3-3-3-3----------(3)-|
E]--------------------------------------------------------------------|
PM  .....          .....          .....          . . . .
chorus(4x):
e]--------------------------------------------------------------|
B]--------------------------------------------------------------|
G]--5555555-----------------------------------------------------|
D]--5555555-5555555-3333333-5555555-----------------------------|
A]--3333333-5555555-3333333-5555555-----------------------------|
E]----------3333333-1111111-3333333-----------------------------|

end on:
e]--------------------------------------------------------------|
B]--------------------------------------------------------------|
G]--------------------------------------------------------------|
D]--5555555555-33-(3)-------------------------------------------|
A]--5555555555-33-(3)-------------------------------------------|
E]--3333333333-11-(1)-------------------------------------------|
PM             ..

I think thats it!
Comments