Misc Unsigned Bands - Mooseknuckles - Time Chords & Tabs

 

Mooseknuckles - Time Chords & Tabs

Misc Unsigned Bands Chords & Tabs

Version: 1 Type: Tab 0 ratings
1 star 2 stars 3 stars 4 stars 5 stars
comments

Mooseknuckles - Time Tab

The Mooseknuckles are a local band from Kane, Pennsylvania. I go to all their shows
and watch how they play their songs, and they let me play sometimes. They kick ass.

Band: The Mooseknuckles
Album: Next Stop, Perkins!
Song: Time
Tuning: EADGBE

Stevie: Lead   
Ryan: Rhythm


Intro:Clean:Stevie
|-----------------------------------------------------------------+
|-----------------------------------------------------------------+
|--9-9-x-9-9-9-x-9-9-9-x-9-9-9-x-9-9-9-x-9-9-9-x-9-9-9-x-9-9-9-x--+
|--9-9-x-9-9-9-x-9-9-9-x-9-9-9-x-9-9-9-x-9-9-9-x-9-9-9-x-9-9-9-x--+
|--7-7-x-7-7-7-x-7-7-7-x-7-7-7-x-7-7-7-x-7-7-7-x-7-7-7-x-7-7-7-x--+
|-----------------------------------------------------------------+


|----------------------------------------------------------------------|
|----------------------------------------------------------------------|
|----------------------------------------------------------------------|
|--9-9-9-x-9-9-9-x-9-9-9-x-9-9-9-x-7-7-7-x-7-7-7-x-11-11-11-x-9-9-9-x--|
|--9-9-9-x-9-9-9-x-9-9-9-x-9-9-9-x-7-7-7-x-7-7-7-x-11-11-11-x-9-9-9-x--|
|--7-7-7-x-7-7-7-x-7-7-7-x-7-7-7-x-5-5-5-x-5-5-5-x-9--9--9--x-7-7-7-x--|


Intro:Part 2:Distorted: Stevie and Ryan
|-----------------------------------------------------------------+
|-----------------------------------------------------------------+
|--9-9-x-9-9-9-x-9-9-9-x-9-9-9-x-9-9-9-x-9-9-9-x-9-9-9-x-9-9-9-x--+
|--9-9-x-9-9-9-x-9-9-9-x-9-9-9-x-9-9-9-x-9-9-9-x-9-9-9-x-9-9-9-x--+
|--7-7-x-7-7-7-x-7-7-7-x-7-7-7-x-7-7-7-x-7-7-7-x-7-7-7-x-7-7-7-x--+
|-----------------------------------------------------------------+


|----------------------------------------------------------------------|
|----------------------------------------------------------------------|
|----------------------------------------------------------------------|
|--9-9-9-x-9-9-9-x-9-9-9-x-9-9-9-x-7-7-7-x-7-7-7-x-11-11-11-x-9-9-9-x--|
|--9-9-9-x-9-9-9-x-9-9-9-x-9-9-9-x-7-7-7-x-7-7-7-x-11-11-11-x-9-9-9-x--|
|--7-7-7-x-7-7-7-x-7-7-7-x-7-7-7-x-5-5-5-x-5-5-5-x-9--9--9--x-7-7-7-x--|


Intro Part 3: Stevie
lead plays the distorted part once then plays this.
|--------------------------------------------------------------+
|----5~---5-7b-5--5-7/10-10-9-9-7-7-5-5----5-5-7/9--9-7-7-5-5--+
|--6----6-------6----------------------6-6---------------------+
|--------------------------------------------------------------+
|--------------------------------------------------------------+
|--------------------------------------------------------------+


|---------------------------------------------------------------------|
|----5~---5-7b-5--5-7/10-10-9-9-7-7-5-5----5-5-7/9--9-7-7-5-5------5~-|
|--6----6-------6----------------------6-6---------------------6-6----|
|---------------------------------------------------------------------|
|---------------------------------------------------------------------|
|---------------------------------------------------------------------|


Intro Part 3: Ryan
|------------------------------------------------------------------------+
|------------------------------------------------------------------------+
|--9-9-99999-9-9-99999---------------------------------------------------+
|--9-9-99999-9-9-99999--9-9-99999-9-9-99999--7-7-77777-7-7-77777-11~--9~-+
|--7-7-77777-7-7-77777--9-9-99999-9-9-99999--7-7-77777-7-7-77777-11~--9~-+
|-----------------------7-7-77777-7-7-77777--5-5-55555-5-5-55555-9~---7~-+


|---------|
|---------|
|--9-99~--|
|--9-99~--|
|--7-77~--|
|---------|

Verse: Stevie plays once by himself, then Ryan comes in for 6 times
|----------------------|  |------|
|----------------------|  |------|
|--5-5------------3----|  |------|End with this
|--5-5--5-5--5-5--3-3--|  |--5~--|
|--3-3--5-5--5-5--1-3--|  |--5~--|
|-------3-3--3-3----1--|  |--3~--|


Chorus: Stevie and Ryan (theres a pick slide before this on the 2nd chorus)
|-------------------------------------------------------------------+
|-------------------------------------------------------------------+
|--7-7-77-77-7-77-----------------7-7-7-77-77-7-77------------------+
|--7-7-77-77-7-77-7-7-77-77-7-77--7-7-7-77-77-7-77--7-7-77-77-7-77--+
|--5-5-55-55-5-55-7-7-77-77-7-77--5-5-5-55-55-5-55--7-7-77-77-7-77--+
|-----------------5-5-55-55-5-55--------------------5-5-55-55-5-55--+
[ Tab from: http://www.guitartabs.cc/tabs/m/misc_unsigned_bands/mooseknuckles_time_tab.html ]
|-----------------------------------------------------------------------|
|-----------------------------------------------------------------------|
|--7-7-77-77-7-77-----------------9-9-9-99-99-9-99----------------------|
|--7-7-77-77-7-77-7-7-77-77-7-77--9-9-9-99-99-9-99--7-7-77-77-7-77--9~--|
|--5-5-55-55-5-55-7-7-77-77-7-77--7-7-7-77-77-7-77--7-7-77-77-7-77--9~--|
|-----------------5-5-55-55-5-55--------------------5-5-55-55-5-55--7~--|



Verse 2: Stevie and Ryan
|----------------------|  |------|
|----------------------|  |------|
|--5-5------------3----|  |------|End with this
|--5-5--5-5--5-5--3-3--|  |--5~--|
|--3-3--5-5--5-5--1-3--|  |--5~--|
|-------3-3--3-3----1--|  |--3~--|


Chorus 2: Stevie and Ryan 
|-------------------------------------------------------------------+
|-------------------------------------------------------------------+
|--7-7-77-77-7-77-----------------7-7-7-77-77-7-77------------------+
|--7-7-77-77-7-77-7-7-77-77-7-77--7-7-7-77-77-7-77--7-7-77-77-7-77--+
|--5-5-55-55-5-55-7-7-77-77-7-77--5-5-5-55-55-5-55--7-7-77-77-7-77--+
|-----------------5-5-55-55-5-55--------------------5-5-55-55-5-55--+

|---------------------------------------------------------------------|
|---------------------------------------------------------------------|
|--7-7-77-77-7-77-----------------9-9-9-99-99-9-99--------------------|
|--7-7-77-77-7-77-7-7-77-77-7-77--9-9-9-99-99-9-99--7-7-77-77-7-77----|
|--5-5-55-55-5-55-7-7-77-77-7-77--7-7-7-77-77-7-77--7-7-77-77-7-77----|
|-----------------5-5-55-55-5-55--------------------5-5-55-55-5-55----|

Chorus Extended: Stevie and Ryan
|-------------------------------------------------------------------+
|-------------------------------------------------------------------+
|--7-7-7-7-7-7-7-7-----------------7-7-7-7-7-7-7-7------------------+
|--7-7-7-7-7-7-7-7-7-7-7-7-7-7-7-7-7-7-7-7-7-7-7-7-7-7-7-7-7-7-7-7--+
|--5-5-5-5-5-5-5-5-7-7-7-7-7-7-7-7-5-5-5-5-5-5-5-5-7-7-7-7-7-7-7-7--+
|------------------5-5-5-5-5-5-5-5-----------------5-5-5-5-5-5-5-5--+


|-----------------------------------------------------------------------|
|-----------------------------------------------------------------------|
|--7-7-7-7-7-7-7-7------------------9-9-9-9-9-9-9-9-----------------9~--|
|--7-7-7-7-7-7-7-7-7-7-7-7-7-7-7-7--9-9-9-9-9-9-9-9-7-7-7-7-7-7-7-7-9~--|
|--5-5-5-5-5-5-5-5-7-7-7-7-7-7-7-7--7-7-7-7-7-7-7-7-7-7-7-7-7-7-7-7-7~--|
|------------------5-5-5-5-5-5-5-5------------------5-5-5-5-5-5-5-5-----|


Bridge: Stevie
|-----------------------------------------------------------------+
|-----------------------------------------------------------------+
|--9-9-x-9-9-9-x-9-9-9-x-9-9-9-x-9-9-9-x-9-9-9-x-9-9-9-x-9-9-9-x--+
|--9-9-x-9-9-9-x-9-9-9-x-9-9-9-x-9-9-9-x-9-9-9-x-9-9-9-x-9-9-9-x--+
|--7-7-x-7-7-7-x-7-7-7-x-7-7-7-x-7-7-7-x-7-7-7-x-7-7-7-x-7-7-7-x--+
|-----------------------------------------------------------------+


|----------------------------------------------------------------------|
|----------------------------------------------------------------------|
|----------------------------------------------------------------------|
|--9-9-9-x-9-9-9-x-9-9-9-x-9-9-9-x-7-7-7-x-7-7-7-x-11-11-11-x-9-9-9-x--| 2x
|--9-9-9-x-9-9-9-x-9-9-9-x-9-9-9-x-7-7-7-x-7-7-7-x-11-11-11-x-9-9-9-x--|
|--7-7-7-x-7-7-7-x-7-7-7-x-7-7-7-x-5-5-5-x-5-5-5-x-9--9--9--x-7-7-7-x--|


Outro: Ryan 
|--------------------------------------------------------------------------+
|--------------------------------------------------------------------------+
|----9---9---9---9---9---9---9---9-------------------------------------+ (1x)
|---9-9-9-9-9-9-9-9-9-9-9-9-9-9-9-9---9---9---9---9----7---7----11-----9---+
|--7---7---7---7---7---7---7---7-----9-9-9-9-9-9-9-9--7-7-7-7-11--11--9-9--+
|-----------------------------------7---7---7---7----5---5---9-------7-----+

play this part twice
|--------------------------------------------------------------------------|
|--------------------------------------------------------------------------|
|----9---9---9---9-----------------------------------------------------|     
|---9-9-9-9-9-9-9-9---9---9---9---9----7---7----7---7---11----11----9---9---|
|--7---7---7---7-----9-9-9-9-9-9-9-9--7-7-7-7--7-7-7-7-11-11-11-11-9-9-9-9--|
|-------------------7---7---7---7----5---5----5---5---9-----9-----7---7-----|


Outro: Stevie
|--------------------------------------------------------------+
|----5~---5-7b-5--5-7/10-10-9-9-7-7-5-5----5-5-7/9--9-7-7-5-5--+
|--6----6-------6----------------------6-6---------------------+
|--------------------------------------------------------------+
|--------------------------------------------------------------+
|--------------------------------------------------------------+


|---------------------------------------------------------------------|
|----5~---5-7b-5--5-7/10-10-9-9-7-7-5-5----5-5-7/9--9-7-7-5-5------5~-|
|--6----6-------6----------------------6-6---------------------6-6----|
|---------------------------------------------------------------------|
|---------------------------------------------------------------------|
|---------------------------------------------------------------------|
Comments