Misc Unsigned Bands - Missing Since Sunday - Worst Addiction Chords & Tabs

 

Missing Since Sunday - Worst Addiction Chords & Tabs

Misc Unsigned Bands Chords & Tabs

Version: 1 Type: Tab 0 ratings
1 star 2 stars 3 stars 4 stars 5 stars
comments

Missing Since Sunday - Worst Addiction Tab

   
i know this song is 100% correct because i wrote it for my band "Missing Since Sunday"
so if you have any problems email me at turkeyrioter44@yahoo.com

Intro
guitar 1 (lead)
E|-----------------------------------------------------------------|
B|-----------------------------------------------------------------|
G|-----------------------------------------------------------------|
D|---------2-2-3-3---------3-3-2-2-----------------------------3-3-|   X2
A|-0-0-0-0---------------------------------3-3-2-2-0-0-2-2-3-3-----|
D|-----------------5-5-5-5---------3-3-3-3-------------------------| 
PM................................................................

E|-----------------------------------------------------------------------|
B|-----------------------------------------------------------------------|
G|-----------------------------------------------------------------------|
D|-----2-----2-2-3-3-----2-----3-3-2-2-----3-----2-2-3-3-0-0-2-2-3-3-2-2-|X2
A|-0-0---0-0---------3-3---3-3---------1-1---1-1-------------------------|
D|-----------------------------------------------------------------------|
PM.. .   . .         . .   . .         . .   .  .        . . . . . . . . 

guitar 2 (rhythm)
E|-----------------------------------------------------------------------|
B|-------------------------------------------------------2---------------|
G|-2-----------------5------------------3----------------2---------------|
D|-2-----------------5------------------3----------------0---------------|X2
A|-0-----------------3------------------1--------------------------------|
D|-----------------------------------------------------------------------|
let ring ~~~~~~~~~~~~~~~~~~~~~~~~~~~~~~~~~~~~~~~~~~~~~~~~~~~~~~~~~~~~~~~

guitar 1
E|-----------------------------------------------------------------------|
B|-----------------------------------------------------------------------|
G|-7-7-7-7-7-7-7-7-7-7-15-15-15-15-15-15-15-15-15-15-7-7-7-7-7-7-7-7-7-7-|
D|-7-7-7-7-7-7-7-7-7-7-15-15-15-15-15-15-15-15-15-15-7-7-7-7-7-7-7-7-7-7-|
A|-5-5-5-5-5-5-5-5-5-5-13-13-13-13-13-13-13-13-13-13-5-5-5-5-5-5-5-5-5-5-|
D|-----------------------------------------------------------------------|

E|-------------------------------|
B|-------------------------------|
G|-15-15-15-15-15-10-10-10-10-10-|
D|-15-15-15-15-15-10-10-10-10-10-| X2
A|-13-13-13-13-13--8--8--8--8--8-|
D|-------------------------------|

guitar 2
E|-------------------------------------------------------------|
B|-------------------------------------------------------------|
G|-------------------------------------------------------------|
D|-0-0-0-0-0-0-0-0-0-0-8-8-8-8-8-8-8-8-8-8-0-0-0-0-0-0-0-0-0-0-|
A|-0-0-0-0-0-0-0-0-0-0-8-8-8-8-8-8-8-8-8-8-0-0-0-0-0-0-0-0-0-0-|
D|-0-0-0-0-0-0-0-0-0-0-8-8-8-8-8-8-8-8-8-8-0-0-0-0-0-0-0-0-0-0-|

E|---------------------|
B|---------------------|
G|---------------------|
D|-8-8-8-8-8\3-3-3-3-3-|
A|-8-8-8-8-8\3-3-3-3-3-|
D|-8-8-8-8-8\3-3-3-3-3-|

Verse 

guitar 1
E|----------------------------------------------------------------|
B|----------------------------------------------------------------|
G|-7-7-7-7-7-7-7-7-7-15-15-15-15-15-15-15-15-15-7-7-7-7-7-7-7-7-7-|
D|-7-7-7-7-7-7-7-7-7-15-15-15-15-15-15-15-15-15-7-7-7-7-7-7-7-7-7-|
A|-5-5-5-5-5-5-5-5-5-13-13-13-13-13-13-13-13-13-5-5-5-5-5-5-5-5-5-|
D|----------------------------------------------------------------|
PM   ................   .......................  .................

E|----------------------------|
B|----------------15-15-14-14-|
G|-15-15-13-13-13-------------|
D|-15-15-13-13-13-------------|
A|-13-13-13-13-13-------------|
D|----------------------------| X2
PM    ...........

guitar 2
E|-----------------------------------------------------------------------------|
B|-----------------------------------------------------------------------------|
G|-----------------------------------------------------------------------------|
D|-0-0-0-0-0-0-0-0-0-0-8-8-8-8-8-8-8-8-8-0-0-0-0-0-0-0-0-0-8-8-8-8-8-3-3-3-3-3-|
A|-0-0-0-0-0-0-0-0-0-0-8-8-8-8-8-8-8-8-8-0-0-0-0-0-0-0-0-0-8-8-8-8-8-3-3-3-3-3-|
D|-0-0-0-0-0-0-0-0-0-0-8-8-8-8-8-8-8-8-8-0-0-0-0-0-0-0-0-0-8-8-8-8-8-3-3-3-3-3-| X2

Chorus
[ Tab from: http://www.guitartabs.cc/tabs/m/misc_unsigned_bands/missing_since_sunday_worst_addiction_tab.html ]
guitar 1
E|---------------------------------------------------------------------------------|
B|---------------------------------------------------------------------------------|
G|-7-7-7-7-7-7-7-7-7-7-7-7-7-7-7-7-15-15-15-15-15-15-15-15-15-15-15-15-15-15-15-15-|
D|-7-7-7-7-7-7-7-7-7-7-7-7-7-7-7-7-15-15-15-15-15-15-15-15-15-15-15-15-15-15-15-15-|
A|-5-5-5-5-5-5-5-5-5-5-5-5-5-5-5-5-13-13-13-13-13-13-13-13-13-13-13-13-13-13-13-13-|
D|---------------------------------------------------------------------------------|

E|-------------------------------------------------|
B|-------------------------------------------------|
G|-10-10-10-10-10-10-10-10-10-10-10-10-10-10-10-10-| 
D|-10-10-10-10-10-10-10-10-10-10-10-10-10-10-10-10-|
A|--8--8--8--8--8--8--8--8--8--8--8--8--8--8--8--8-|
D|-------------------------------------------------| 

E|-------------------------------------------------|
B|-------------------------------------------------|
G|-------------------------------------------------|
D|-10-10-10-10-10-10-10-10-10-10-10-10-10-10-10-10-|
A|-10-10-10-10-10-10-10-10-10-10-10-10-10-10-10-10-|
D|-10-10-10-10-10-10-10-10-10-10-10-10-10-10-10-10-|

guitar 2
E|-----------------------------------------------------------------|
B|-----------------------------------------------------------------|
G|-----------------------------------------------------------------|
D|-0-0-0-0-0-0-0-0-0-0-0-0-0-0-0-0-8-8-8-8-8-8-8-8-8-8-8-8-8-8-8-8-| 
A|-0-0-0-0-0-0-0-0-0-0-0-0-0-0-0-0-8-8-8-8-8-8-8-8-8-8-8-8-8-8-8-8-|
D|-0-0-0-0-0-0-0-0-0-0-0-0-0-0-0-0-8-8-8-8-8-8-8-8-8-8-8-8-8-8-8-8-|

E|-----------------------------------------------------------------|
B|-----------------------------------------------------------------|
G|---------------------------------5-5-5-5-5-5-5-5-5-5-5-5-5-5-5-5-|
D|-3-3-3-3-3-3-3-3-3-3-3-3-3-3-3-3-5-5-5-5-5-5-5-5-5-5-5-5-5-5-5-5-|
A|-3-3-3-3-3-3-3-3-3-3-3-3-3-3-3-3-3-3-3-3-3-3-3-3-3-3-3-3-3-3-3-3-|
D|-3-3-3-3-3-3-3-3-3-3-3-3-3-3-3-3---------------------------------|X2

Verse

Chorus

Interlude

guitar 2
E|------------------------------------------------------------------------------------|
B|---15-15-15-14-14-12----15-15-15-14-14-12----12-12-12-14-14-15----12-12-12-14-14-15-|
G|------------------------------------------------------------------------------------|
D|------------------------------------------------------------------------------------|
A|------------------------------------------------------------------------------------|
D|------------------------------------------------------------------------------------|X2

guitar 1
E|------------------------------------------------------------------------------------|
B|------------------------------------------------------------------------------------|
G|-3--------------------5-------------------------------------------------------------|
D|-3--------------------5-------------------0-0-0-0-0-0-0-0-0-0---0-0-0-0-0-0-0-0-0-0-|
A|-1--------------------3-------------------0-0-0-0-0-0-0-0-0-0---0-0-0-0-0-0-0-0-0-0-|
D|------------------------------------------0-0-0-0-0-0-0-0-0-0---0-0-0-0-0-0-0-0-0-0-|X2

guitar 2
E|------------------------------------------------------------------------------------|
B|---15-15-15-14-14-12----15-15-15-14-14-12----12-12-12-14-14-15----12-12-12-14-14-15-|
G|------------------------------------------------------------------------------------|
D|------------------------------------------------------------------------------------|
A|------------------------------------------------------------------------------------|
D|------------------------------------------------------------------------------------|X2

guitar 1
E|------------------------------------------------------------------------------------|
B|------------------------------------------------------------------------------------|
G|-3--------------------5-------------------------------------------------------------|
D|-3--------------------5-------------------0-----------------------------------------|
A|-1--------------------3-------------------0-----------------------------------------|
D|------------------------------------------0------------------------------------------|X2

guitar 2
E|--------------------------------------------------|
B|--------------------------------------------------|
G|----------------------------------------5-5-5-5-5-|
D|---0-----0-----8-----8----3----3------------------|
A|-----0-----0-----8-----8----3----3--3-3-----------|
D|-0-----0-----8-----8-----3----3-------------------|
PM.......................................   .   .

Chorus 

Interlude x5
Comments