Misc Unsigned Bands - Minor Federation - System Chords & Tabs

 

Minor Federation - System Chords & Tabs

Misc Unsigned Bands Chords & Tabs

Version: 1 Type: Tab 0 ratings
1 star 2 stars 3 stars 4 stars 5 stars
comments

Minor Federation - System Tab

   
-------------------------------------------------------------------------------
			     SYSTEM - Minor Federation
-------------------------------------------------------------------------------
Website: http://www.minorfederation.tk
Country: Scotland

Tabbed by: Andy 
Email: andy_minor_fed@hotmail.com

Tuning: Standard

Intro
GUITAR 1 

|---------------------------------------------------------------------------|
|---------------------------------------------------------------------------|
|-------5-----------7-------------------------------------------------------|
|-2-----5-----5-----7----------------------------------X2-------------------|
|-2-----3-----5-----5-------------------------------------------------------|
|-0-----------3-------------------------------------------------------------|


GUITAR 2
  
|---------------------------------------------------------------------------|
|---------------------------------------------------------------------------|
|-545--545--545--542--545--545--545--754------------------------------------|
|---------------------------------------------------------------------------|
|---------------------------------------------------------------------------|
|---------------------------------------------------------------------------|

Verse 1 & 2
GUITAR 1 
  
|---------------------------------------------------------------------------|
|---------------------------------------------------------------------------|
|---------------------------------------------------------------------------|
|----------55555555----------77777777------------------X2-------------------|
|-22222222-33333333-55555555-55555555---------------------------------------|
|-00000000----------33333333------------------------------------------------|
 PM..........................................................................
[ Tab from: http://www.guitartabs.cc/tabs/m/misc_unsigned_bands/minor_federation_system_tab.html ]
GUITAR 2
  
|---------------------------------------------------------------------------|
|---------------------------------------------------------------------------|
|--------------------------------------------------------------------7------|
|----------55555555----------77777777-----------55555555----------77---7----|
|-22222222-33333333-55555555-55555555--22222222-33333333-55555555-55-----5--|
|-00000000----------33333333-----------00000000----------33333333-----------|
 PM..................................................................



==============================================================================

VERSE 2 is played by bass on its own, while GTR2 makes feedback noises.
BRIDGE is played with Guitar 1's riff for the chorus by both guitars with
a different rythm pattern (have to listen to the song to find it out)

==============================================================================
CHORUS 
GUITAR 1

|---------------------------------------------------------------------------|
|---------------------------------------------------------------------------|
|----------55555555----------77777777---------------------------------------|
|-22222222-55555555-55555555-77777777---------------------------------------|
|-22222222-33333333-55555555-55555555---------------------------------------|
|-00000000----------33333333------------------------------------------------|

GUITAR 2
  
|---------------------------------------------------------------------------|
|---------------------------------------------------------------------------|
|-545--545--545--542--545--545--545--754------------------------------------|
|---------------------------------------------------------------------------|
|---------------------------------------------------------------------------|
|---------------------------------------------------------------------------|

| /  slide up
| \  slide down
| h  hammer-on
| p  pull-off
| ~  vibrato
| +  harmonic
| x  Mute note

===============================================================================
Comments