Misc Unsigned Bands - Memoir - Shes Gone Chords & Tabs

 

Memoir - Shes Gone Chords & Tabs

Misc Unsigned Bands Chords & Tabs

Version: 1 Type: Tab 0 ratings
1 star 2 stars 3 stars 4 stars 5 stars
comments

Memoir - Shes Gone Tab

Think CKY whiles playing this song and if singing think of Phil of Pantera
Its a fun song and not that hard to play. It goes along with Memoir's Industrial gothic
metal cult that they've started in Las Vegas Underground. Just remember they got this
song copywritten so you have email them if you want to record for a demo cause they get
fucking pissed off. They always find out. Their email is memoir666@lycos.com if you have
any questions their cool.
_=slide
\=sustain that last note

E|---------------------|
B|---------------------|
G|---------------------|
D|2_1-0-2-0-2-0-3-3-3--|
A|2_1-0-2-0-2-0-3-3-3--|
E|2_1-0-2-0-2-0-3-3-3--|
E|---------------------|
B|---------------------|
G|---------------------|
D|2_1-0-2-0-2-0-3-3-3--|
A|2_1-0-2-0-2-0-3-3-3--|
E|2_1-0-2-0-2-0-3-3-3--|
E|----------------------|
B|----------------------|
G|----------------------|
D|2_1-0-2-0-2-0-3-3-3\--|
A|2_1-0-2-0-2-0-3-3-3\--|
E|2_1-0-2-0-2-0-3-3-3\--|

Locked in the dark-
Nothing left to look for-

E|---------------------|
B|---------------------|
G|---------------------|
D|2_1-0-2-0-2-0-3-3-3--|
A|2_1-0-2-0-2-0-3-3-3--|
E|2_1-0-2-0-2-0-3-3-3--|
E|---------------------|
B|---------------------|
G|---------------------|
D|2_1-0-2-0-2-0-3-3-3--|
A|2_1-0-2-0-2-0-3-3-3--|
E|2_1-0-2-0-2-0-3-3-3--|
E|----------------------|
B|----------------------|
G|----------------------|
D|2_1-0-2-0-2-0-3-3-3\--|
A|2_1-0-2-0-2-0-3-3-3\--|
E|2_1-0-2-0-2-0-3-3-3\--|

And her heart seems lost and hurt-
But I figure my love can take over-
And her spirit be rejoined forever-

Chorus:
E|-----------------------------------------------|
B|-----------------------------------------------|
G|-----------------------------------------------|
D|--------------------------3-2-0-2-0-2-0-3-3-3--|
A|5-5-5-3-3-5-5-5-3-3-5-5-5-3-2-0-2-0-2-0-3-3-3--|
E|3-3-3-3-3-3-3-3-3-3-3-3-3-3-2-0-2-0-2-0-3-3-3--|

But I figure my life is a living hell-
Try to sell my soul to her-
But her life has run out-
And finally I know everythings fucked now-
She's the only one and now she's gone-
[ Tab from: http://www.guitartabs.cc/tabs/m/misc_unsigned_bands/memoir_shes_gone_tab.html ]
E|---------------------|
B|---------------------|
G|---------------------|
D|2_1-0-2-0-2-0-3-3-3--|
A|2_1-0-2-0-2-0-3-3-3--|
E|2_1-0-2-0-2-0-3-3-3--|
E|---------------------|
B|---------------------|
G|---------------------|
D|2_1-0-2-0-2-0-3-3-3--|
A|2_1-0-2-0-2-0-3-3-3--|
E|2_1-0-2-0-2-0-3-3-3--|
E|----------------------|
B|----------------------|
G|----------------------|
D|2_1-0-2-0-2-0-3-3-3\--|
A|2_1-0-2-0-2-0-3-3-3\--|
E|2_1-0-2-0-2-0-3-3-3\--|

My head is dead-
and I might have said that before-

E|---------------------|
B|---------------------|
G|---------------------|
D|2_1-0-2-0-2-0-3-3-3--|
A|2_1-0-2-0-2-0-3-3-3--|
E|2_1-0-2-0-2-0-3-3-3--|
E|---------------------|
B|---------------------|
G|---------------------|
D|2_1-0-2-0-2-0-3-3-3--|
A|2_1-0-2-0-2-0-3-3-3--|
E|2_1-0-2-0-2-0-3-3-3--|
E|----------------------|
B|----------------------|
G|----------------------|
D|2_1-0-2-0-2-0-3-3-3\--|
A|2_1-0-2-0-2-0-3-3-3\--|
E|2_1-0-2-0-2-0-3-3-3\--|

Love from her-
felt so good-
It was my high-

E|---------------------|
B|---------------------|
G|---------------------|
D|2_1-0-2-0-2-0-3-3-3--|
A|2_1-0-2-0-2-0-3-3-3--|
E|2_1-0-2-0-2-0-3-3-3--|
E|---------------------|
B|---------------------|
G|---------------------|
D|2_1-0-2-0-2-0-3-3-3--|
A|2_1-0-2-0-2-0-3-3-3--|
E|2_1-0-2-0-2-0-3-3-3--|
E|----------------------|
B|----------------------|
G|----------------------|
D|2_1-0-2-0-2-0-3-3-3\--|
A|2_1-0-2-0-2-0-3-3-3\--|
E|2_1-0-2-0-2-0-3-3-3\--|

I got addicted like she was a drug-
Did too much, got too close and fucked it up-

Chorus:
E|-----------------------------------------------|
B|-----------------------------------------------|
G|-----------------------------------------------|
D|--------------------------3-2-0-2-0-2-0-3-3-3--|
A|5-5-5-3-3-5-5-5-3-3-5-5-5-3-2-0-2-0-2-0-3-3-3--|
E|3-3-3-3-3-3-3-3-3-3-3-3-3-3-2-0-2-0-2-0-3-3-3--|

But I figure my life is a living hell-
Try to sell my soul to her-
But her life has run out-
And finally I know everythings fucked now-
She's the only one and now she's gone-

(nothing but bass drum and hi-hat)

Heaven I'm addicted-
Heaven I'm a victim-    x2
(to her)

Chorus:
E|-----------------------------------------------|
B|-----------------------------------------------|
G|-----------------------------------------------|
D|--------------------------3-2-0-2-0-2-0-3-3-3--|
A|5-5-5-3-3-5-5-5-3-3-5-5-5-3-2-0-2-0-2-0-3-3-3--|
E|3-3-3-3-3-3-3-3-3-3-3-3-3-3-2-0-2-0-2-0-3-3-3--|

But I figure my life is a living hell-
Try to sell my soul to her-
But her life has run out-
And finally I know everythings fucked now-
She's the only one and now she's gone-

Chorus:
E|------------------------------------------------|
B|------------------------------------------------|
G|------------------------------------------------|
D|--------------------------3-2-0-2-0-2-0-3-3-3\--|
A|5-5-5-3-3-5-5-5-3-3-5-5-5-3-2-0-2-0-2-0-3-3-3\--|
E|3-3-3-3-3-3-3-3-3-3-3-3-3-3-2-0-2-0-2-0-3-3-3\--|
Comments