Misc Unsigned Bands - Medley - Sin Chords & Tabs

 

Medley - Sin Chords & Tabs

Misc Unsigned Bands Chords & Tabs

Version: 1 Type: Tab 0 ratings
1 star 2 stars 3 stars 4 stars 5 stars
comments

Medley - Sin Tab

   
        we are medley a new band yes we may be quite bad but you guys 
        have maroon 5 in your archive MAROON 5 they suck so just put this 
        tab in??????????????????????
-----------------------------------------------------------------------------
                              MEDLEY
-----------------------------------------------------------------------------
Tabbed by:hansbme4free
If you think this song sucks send us your thoughts! (expecting a lot)
e-mail:hansbme4free@hotmail.com

key:
| /  slide up
| \  slide down
| h  hammer-on
| p  pull-off
| ~  vibrato
| +  harmonic
| x  Mute note
| rx release to a mute

tuning:ebgdaE
intro
gain lots of gain

e|----------------|----------------|----------------|----------------|
b|----------------|----------------|----------------|-----------1-1-1|
g|----------------|----------------|----------------|-----------2-2-2|
d|----------------|----------------|-3-------3------|-3-------3-2-2-2|
a|----------------|----------------|-3-------3------|-3-------3------|
E|-0-0-0-0-0-0-0-0|-0-0-0-0-0-0-0-0|-1-0-0-0-1-0-0-0|-1-0-0-0-1------|
P.M-------------slowly-release------| |-----| |------| |-------|

chorus
lots of gain

e|----------------|----------------|
b|----------------|-----------1-1-1|
g|----------------|-----------2-2-2|
d|-3-------3------|-3-------3-2-2-2|
a|-3-------3------|-3-------3------|
E|-1-0-0-0-1-0-0-0|-1-0-0-0-1------|
  P.M-----| |------| |-----| 

verse1:
clean
[ Tab from: http://www.guitartabs.cc/tabs/m/misc_unsigned_bands/medley_sin_tab.html ]
e|----------------|--------------------------------|
b|----------------|-1rx-1rx-1rx-1rx-1rx-1rx-1rx-1rx|
g|-1-0-1-0-1-0-1-0|-2rx-2rx-2rx-2rx-2rx-2rx-2rx-2rx|repeat
d|-2-2-2-2-2-2-2-2|-2rx-2rx-2rx-2rx-2rx-2rx-2rx-2rx|  X3
a|-2-2-2-2-2-2-2-2|--------------------------------|
E|----------------|--------------------------------|

solo:
clean

e|---------------------------------------------------|
b|---------------------------------------------------|
g|-------------------------------------------------12|reapeat
d|-----------------------------------------------11--|  X3
a|---------------------------------------------12----|
E|12h13p12/11h12-12h13p12/11h12-12h13p12/11h12-------|

verse2:
clean

e|----------------|--------------------------------|
b|----------------|-1rx-1rx-1rx-1rx-1rx-1rx-1rx-1rx|
g|-1-0-1-0-1-0-1-0|-2rx-2rx-2rx-2rx-2rx-2rx-2rx-2rx|repeat
d|-2-2-2-2-2-2-2-2|-2rx-2rx-2rx-2rx-2rx-2rx-2rx-2rx|  X3
a|-2-2-2-2-2-2-2-2|--------------------------------|
E|----------------|--------------------------------|

outro:
gain

e|----------------|----------------|----------------|----------------|
b|----------------|----------------|----------------|-----------1-1-1|
g|----------------|----------------|----------------|-----------2-2-2|
d|----------------|----------------|-3-------3------|-3-------3-2-2-2|
a|----------------|----------------|-3-------3------|-3-------3------|
E|-0-0-0-0-0-0-0-0|-0-0-0-0-0-0-0-0|-1-0-0-0-1-0-0-0|-1-0-0-0-1------|
P.M-------------slowly-release------| |-----| |------| |-------|

e|----------------|----------------|
b|----------------|-----------1-1-1|
g|----------------|-----------2-2-2|
d|-3-------3------|-3-------3-2-2-2|
a|-3-------3------|-3-------3------|
E|-1-0-0-0-1-0-0-0|-1-0-0-0-1------|
  P.M-----| |------| |-----|

intro
verse1 X3
chorus x4
solo x3
verse2 x3
chorus x4
outro
Comments