Misc Unsigned Bands - Material Possession - I Miss You Acoustic Chords & Tabs

 

Material Possession - I Miss You Acoustic Chords & Tabs

Misc Unsigned Bands Chords & Tabs

Version: 1 Type: Tab 0 ratings
1 star 2 stars 3 stars 4 stars 5 stars
comments

Material Possession - I Miss You Acoustic Tab

   
=========================================================
Finger Pick This on verses and use plectrum on Chorus's
=========================================================

Title - I Miss You (Acoustic)
Band - Material Possession
Album - Butterfly Death Demo
Guitarist - Necrophil
Tabber - Phil McCrum
Website - www.freewebs.com/materialpossession

Intro - Then straight into Verse 1

e|-3-2-|
B|-----|
G|-----|
D|-----|
A|-----|
e|-3-2-|

Verse 1

e|--------------------|
B|----0---0----0----0-|
G|--0---0----0----0---| X3
D|---0---0----0----0--|
A|--------------------|
E|-3----2---0----0----|

Bridge Straight after the 3rd time round of the verse

e|-3-2-|
B|-----|
G|-----|
D|-----|
A|-----|
e|-3-2-|

Chorus

e|--------------------------|
B|--------------------------|
G|--------------------------|
D|-5-555-4-444-2-222-2-2222-| X4
A|-5-555-4-444-2-222-2-2222-|
e|-3-333-2-222-0-000-0-0000-|

   D DUD D DUD D DUD D DUDD

Verse 2

e|--------------------|
B|----0---0----0----0-|
G|--0---0----0----0---| X3
D|---0---0----0----0--|
A|--------------------|
E|-3----2---0----0----|

Bridge Straight after the 3rd time round of the verse again

e|-3-2-|
B|-----|
G|-----|
D|-----|
A|-----|
e|-3-2-|

Chorus

e|--------------------------|
B|--------------------------|
G|--------------------------|
D|-5-555-4-444-2-222-2-2222-| X4
A|-5-555-4-444-2-222-2-2222-|
e|-3-333-2-222-0-000-0-0000-|

   D DUD D DUD D DUD D DUDD

Bridge straight after the fourth time of the chorus
[ Tab from: http://www.guitartabs.cc/tabs/m/misc_unsigned_bands/material_possession_i_miss_you_acoustic_tab.html ]
e|-3-2-|
B|-----|
G|-----|
D|-----|
A|-----|
e|-3-2-|

Chorus 2

e|--------------------------|
B|--------------------------|
G|-------------4-444--------|
D|-2-222X4-444X4-444X5-555X-|
A|-2-222X4-444X2-222X5-555X-|
E|-0-000X2-222X-----X3-333X-|

   D DUD D DUD D DUD D DUD

e|-------------------------|
B|-------------------------|
G|-------------4-444X------|
D|-2-222X4-444X4-444X5-5-5-|
A|-2-222X4-444X2-222X5-5-5-|
E|-0-000X2-222X------3-3-3-|

   D DUD D DUD D DUD D D D

e|--------------------------|
B|--------------------------|
G|-------------4-444--------|
D|-2-222X4-444X4-444X5-555X-|
A|-2-222X4-444X2-222X5-555X-|
E|-0-000X2-222X-----X3-333X-|

   D DUD D DUD D DUD D DUD

e|-------------------------|
B|-------------------------|
G|-------------------------|
D|-2-222X4-444\5-555/4-444-|
A|-2-222X4-444\5-555/4-444-|
e|-0-000X2-222\5-333/2-222-|

   D DUD D DUD D DUD D DUD

Outro

e|------------------|
B|-----0-----0------|
G|--0-----0---------|
D|----0-----0-------|
A|------------------|
E|-3-----2-----0----|. = Let Ring

If you have any comments then necrophil@hotmail.co.uk and if you want this song or CUT 
TO SHREDS then add me on MSN or go to www.freewebs.com/materialpossession and add one of 
and we should send you then if u ask nicely (They arnt a CD version it was recorded through
a computer so the quality is not good but you should be able to hear it to play)

=================================================
BUGGY THIS IS FOR YOU LOL
=================================================
Comments