Misc Unsigned Bands - Material Possession - Cut Me To Shreds Chords & Tabs

 

Material Possession - Cut Me To Shreds Chords & Tabs

Misc Unsigned Bands Chords & Tabs

Version: 1 Type: Tab 0 ratings
1 star 2 stars 3 stars 4 stars 5 stars
comments

Material Possession - Cut Me To Shreds Tab

   
CUT ME TO SHREDS - Guitar 1

Band - Material Possession
Album - Butterfly Death Demo
Guitarist - Necrophil
Tabber - Phil McCrum
Website - www.freewebs.com/materialpossession

Intro

e |---------------|
B |---------------|
G |---------------|
D |---3---3---3---|
A |--3-3-3-3-3-3--|
E |-1---1---1---1-|

(Bass Slide after the 1)

Verse

e |---------------------------------------------------------------|
B |---------------------------------------------------------------|
G |---------------------------------------------------------------|
D |---3---3---3---3---3---3---3---3---2---2---2---2---1---1---1---|
A |--3-3-3-3-3-3-3-3-3-3-3-3-3-3-3-3-2-2-2-2-2-2-2-2-1-1-1-1-1-1--|
E |-1---1---1---1---0---0---0---0---0---0---0---0---0---0---0---0-|

e |----------------------------------------------------------------|
B |----------------------------------------------------------------|
G |----------------------------------------------------------------|
D |---3---3---3---3---3---3---3---3---2---2---2---2---1---1--111110|
A |--3-3-3-3-3-3-3-3-3-3-3-3-3-3-3-3-2-2-2-2-2-2-2-2-1-1-1-1-111110|
E |-1---1---1---1---0---0---0---0---0---0---0---0---0---0----000000|
                                                          PM ....
Bridge/Outro Verse

e |---------------------------------------------------------------------|
B |----------------------------------------------------------------(13)-|
G |---------------------------------------------------------------------|
D |-33333333333333333333333333333333222222222222222211111111111100------|
A |-33333333333333333333333333333333222222222222222211111111111100------|
E |-11111111111111110000000000000000000000000000000000000000000000------|
[ Tab from: http://www.guitartabs.cc/tabs/m/misc_unsigned_bands/material_possession_cut_me_to_shreds_tab.html ]
e |---------------------------------------------------------------------|
B |----------------------------------------------------------------(13)-|
G |---------------------------------------------------------------------|
D |-33333333333333333333333333333333222222222222222211111111111100------|
A |-33333333333333333333333333333333222222222222222211111111111100------|
E |-11111111111111110000000000000000000000000000000000000000000000------|

e |---------------------------------------------------------------------|
B |----------------------------------------------------------------(13)-|
G |---------------------------------------------------------------------|
D |-33333333333333333333333333333333222222222222222211111111111100------|
A |-33333333333333333333333333333333222222222222222211111111111100------|
E |-11111111111111110000000000000000000000000000000000000000000000------|
    
e |---------------------------------------------------------------------|
B |---------------------------------------------------------------------|
G |---------------------------------------------------------------------|
D |-3333333333333333333333333333333322222222222222221111111111111-0-3...|
A |-3333333333333333333333333333333322222222222222221111111111111-0-3...|
E |-1111111111111111000000000000000000000000000000000000000000000-0-1...|
                                                           PM...  

Cut Me to Shreds

1st Verse

I'm thinking about suicide
Playing Russian roulette in my mind
Thinking of the days that you were mine
Wishing I was by your side
I hope you felt the love I gave
I love you that's all I've got to say
Don't follow me you should stay
I have gone to a better place
Where I will see you again one day
I am really, really sorry
I will look after you from above
Everyday from now on my love
Now you know I'm gonna go
You are reading this note I need you to know
I will love you till the day I die
Which is today, Sorry, Goodbye

Outro Verse

I'm sitting here alone
Thinking about you
I'm sitting here alone
I need you to know I love you


Rite thats me over there shouldn't be any mistakes because I made it up I am the
guitarist for Material Possession!! but anyways my E-Mail - my_beginning_is_the_end@hotmail.com
Comments