Misc Unsigned Bands - Madsen - Mein Therapeut Ich Chords & Tabs

 

Madsen - Mein Therapeut Ich Chords & Tabs

Misc Unsigned Bands Chords & Tabs

Version: 1 Type: Tab

Madsen - Mein Therapeut Ich Tab

   
artist: madsen
track : mein therapeut und ich
album : madsen
tabbed by : snyder
teraz-rulez@gmx.net

band -> www.madsenmusik.de


Griffe

	C  C'   D   D'  hm    G    F#   em

e)	3  x    5   x    x    x     x    7
H)	5  x    7   x    x    x     x    8
G)	5  5    7   7    x    x     12   9
D)	5  5    7   7    9    5     12   9
A)	x  3    x   5    9    5     10   x
E)	x  x    x   x    7    3     10   x


Intro

Bass                    (4x)
A|---------2---2---2---2--|
E|-------3---3---3---3----|


Gitarre 1 clean (Nach 2 Bassläufen)

                        (4 x)
e)------7-7-7-7--------------------------|
H)------7-7-7-7--------------------------|
G)------7-7-7-7--------------------------|
D)------9-9-9-9--------------------------|
A)---------------------------------------|
E)---------------------------------------|

danach

Gitarre 1 verzerrt


          hm         G         F#        D
e)-----------------------------------------------|
H)-----------------------------------------------|
G)-------------------------12-12-12-12--7-7-7-7--|
D)-----9-9-9-9---5-5-5-5---12-12-12-12--7-7-7-7--|
A)-----9-9-7-7---5-5-5-5---10-10-10-10--5-5-5-5--|
E)-----7-7-7-7---3-3-3-3---10-10-10-10-----------|


          hm         G         F#        D
e)-----------------------------------------------|
H)-----------------------------------------------|
G)-----------------------------------7-----------|
D)-----9-9-9-9---5-5-5-5---4-4-4-4---7-----------|
A)-----9-9-7-7---5-5-5-5---4-4-4-4---5-----------|
E)-----7-7-7-7---3-3-3-3---2-2-2-2---------------|

dazu Gitarre 2 (2x)
1|-------77773333-----------|
2|---------------77773333---|

Strophe 1 (Ska Style, leicht verzerrt)


     em               D            C              D           (4x)

      Heut ist ein wundervoller Tag - Ich hab kein Problem früh aufzustehn......

Bridge (Powerchords)


	C'            D'

	Alles was ich will..

                	     C'

	Ist das Du mir glaubst


	                         D                 F#
	Es geht nicht mehr bergab, nur noch berg auf

Refrain


Gitarre 1 verzerrt

[ Tab from: http://www.guitartabs.cc/tabs/m/misc_unsigned_bands/madsen_mein_therapeut_ich_tab.html ]
          hm         G         F#        D      (3x)
e)-----------------------------------------------|
H)-----------------------------------------------|
G)-------------------------12-12-12-12--7-7-7-7--|
D)-----9-9-9-9---5-5-5-5---12-12-12-12--7-7-7-7--|
A)-----9-9-7-7---5-5-5-5---10-10-10-10--5-5-5-5--|
E)-----7-7-7-7---3-3-3-3---10-10-10-10-----------|

      Denn zum Glück ist das alles jetzt vorbei.....

dazu Gitarre 2 (3x)
1|-------77773333-----------|
2|---------------77773333---|

Dann
       D                             G          hm
e)------------------------------------------------|
H)------------------------------------------------|
G)--7777777777------------------------------------|
D)--7777777777----------------55555555----------9-|
A)--5555555555----------------55555555----------9-|
E)------------------------ ---33333333----------7-|


--tu mir den Gefalln, weck mich bitte nicht auf

Solo   (Nach zweiten Refrain)


(mit Strophenbegleitung)


e)----------------------------------------------------------------------------------------|
H)---0^5--7-8-9-8--8-10-12-10--10-12-13-12---12-12-----------------10-10------------------|
G)------------------------------------------------12-12-11-11-9-9--------10-10-9-9-7-7----|
D)----------------------------------------------------------------------------------------|
A)----------------------------------------------------------------------------------------|
E)----------------------------------------------------------------------------------------|

e)-------------------------0^3-0^2-0^3-0^2-0^3---0^3-0^3-0^3^2-------10^15----10^14---8^12^10-|
H)---8-8--------------------------------------------------------------------------------------|
G)-------8-8-7-7-5-5-7^8----------------------------------------------------------------------|
D)--------------------------------------------------------------------------------------------|
A)--------------------------------------------------------------------------------------------|
E)--------------------------------------------------------------------------------------------|


..das Tab ist noch nicht perfekt also wenn euch was auffällt (speziell im Solo)
last es mich wissen.
Hat SPass gemacht es zu tabben, hoffe es bringt euch auch Spaß.
Gruß Euer snyder