Misc Unsigned Bands - Mad Hatter Day - Finding Atlantis Chords & Tabs

 

Mad Hatter Day - Finding Atlantis Chords & Tabs

Misc Unsigned Bands Chords & Tabs

Version: 1 Type: Tab 0 ratings
1 star 2 stars 3 stars 4 stars 5 stars
comments

Mad Hatter Day - Finding Atlantis Tab

***NOTE****
"this song is still not complete."

LEAD:

Intro 1:
|--------------------------------|
|--------------------------------|
|--------------------------------|
|--------------------------------|
|-5-5-5-5-5-5-5-5-5-5-5-5-5-5-5-5|
|--------------------------------|

|------------------------------------------------|
|---------6-6-6-6--------8-8-8-10-10-------------|   (Repeat 3x)
|-7-7-7-7---------9-9-9-9------------------------|
|------------------------------------------------|
|------------------------------------------------|
|------------------------------------------------|

|----------------------------------|
|---------6-6-6-6-6----------------|
|-7-7-7-7----------9-7-7h9-7-5-----|
|----------------------------------|
|----------------------------------|
|----------------------------------|

|------------------------------------|
|---------6-6-6-6-------8-8-8-10-10--|
|-7-7-7-7--------9-9-9-9-------------|
|------------------------------------|
|------------------------------------|
|------------------------------------|

|------------------------------------|
|---------6-6-6-6-8h10-8-6h8-6-5-----|
|-7-7-7-7----------------------------|
|------------------------------------|
|------------------------------------|
|------------------------------------|

|------------------------------------|
|---------6-6-6-6--------8-8-8-10-10-|
|-7-7-7-7---------9-9-9-9------------|
|------------------------------------|
|------------------------------------|
|------------------------------------|

|------------------------------------|
|--------6-6-6-6-6-------------------|
|-7-7-7-7----------9-7-7h9-7-5-------|
|------------------------------------|
|------------------------------------|
|------------------------------------|

|------------------------------------|
|--------6-6-6-6---------8-8-8-10-10-|
|-7-7-7-7--------9-9-9-9-------------|
|------------------------------------|
|------------------------------------|
|------------------------------------|
[ Tab from: http://www.guitartabs.cc/tabs/m/misc_unsigned_bands/mad_hatter_day_finding_atlantis_tab.html ]
|------------------------------------|
|---------6-6-6-6---6-6--------------|
|-7-7-7-7---------7-----9------------|
|------------------------------------|
|------------------------------------|
|------------------------------------|

|------------------------------------|
|5h6p5-------------------------------|
|------7h9p7-0-----------------------|
|------------------------------------|
|------------------------------------|
|------------------------------------|


RHYTHM:

Intro 1:

|---------------------------------|
|---------------------------------|
|---------------------------------|
|---------------------------------|
|-5-5-5-5-5-5-5-5-5-5-5-5-5-5-5-5-|
|---------------------------------|


|---------------|
|---------------|
|---------------|
|-0----0-0------|
|-0----0-0------|
|-0----0-0------|

|----------------------------|
|----------------------------|
|----------------------------|
|-0-0-0--0-0--0-0--0-0-0-0---|
|-0-0-0--0-0--0-0--0-0-0-0---|
|-0-0-0--0-0--0-0--0-0-0-0---|

|------------------------|
|------------------------|
|------------------------|
|-8-8-8-10-10-10---------|
|-8-8-8-10-10-10---------|
|-8-8-8-10-10-10---------|


|----------------------------|
|----------------------------|
|----------------------------|
|-0-0-0--0-0--0-0--0-0-0-0---|
|-0-0-0--0-0--0-0--0-0-0-0---|
|-0-0-0--0-0--0-0--0-0-0-0---|

|----------------------------|
|----------------------------|
|----------------------------|
|-8-8-8-8-5-5-5-5------------|
|-8-8-8-8-5-5-5-5------------|
|-8-8-8-8-5-5-5-5------------|


|----------------------------|
|----------------------------|
|----------------------------|
|-0-0-0--0-0--0-0--0-0-0-0---|
|-0-0-0--0-0--0-0--0-0-0-0---|
|-0-0-0--0-0--0-0--0-0-0-0---|

|------------------------|
|------------------------|
|------------------------|
|-8-8-8-10-10-10---------|
|-8-8-8-10-10-10---------|
|-8-8-8-10-10-10---------|

|----------------------------|
|----------------------------|
|----------------------------|
|-0-0-0--0-0--0-0--0-0-0-0---|
|-0-0-0--0-0--0-0--0-0-0-0---|
|-0-0-0--0-0--0-0--0-0-0-0---|

|----------------------------|
|----------------------------|
|----------------------------|
|-8-8-8-8-5-5-5-5------------|
|-8-8-8-8-5-5-5-5------------|
|-8-8-8-8-5-5-5-5------------|

*NOTE*
Intro 2 is still not done
Comments