Misc Unsigned Bands - Long Miles - Mr Sunshine Chords & Tabs

 

Long Miles - Mr Sunshine Chords & Tabs

Misc Unsigned Bands Chords & Tabs

Version: 1 Type: Tab

Long Miles - Mr Sunshine Tab

   
-----------------------------------------------------------------------------
                       Long Miles - Mr. Sunshine
-----------------------------------------------------------------------------

Band Website: http://www.myspace.com/longmiles

Tabbed by: Sam Hall
Tuning: Standard

Key:
| /  slide up
| \  slide down
| h  hammer-on
| p  pull-off
| ~  vibrato
| +  harmonic
| x  Mute note

Intro:

  (Play this part x5)

e|-5--5--5--5-5-5---6--6--6--6-6-6---5--5--5--5-5-5---6--6--6--6-6-6---|
B|-6--6--6--6-6-6/8-8--8--8--8-8-8\6-6--6--6--6-6-6/8-8--8--8--8-8-8\6-|
G|-5--5--5--5-5-5---7--7--7--7-7-7---5--5--5--5-5-5---7--7--7--7-7-7---|
D|---------------------------------------------------------------------|
A|---------------------------------------------------------------------|
E|---------------------------------------------------------------------|

  (Then this x1)
[ Tab from: http://www.guitartabs.cc/tabs/m/misc_unsigned_bands/long_miles_mr_sunshine_tab.html ]
e|-5--5--5--5-5-5---6-6-6-6-|
B|-6--6--6--6-6-6/8-8-8-8-8-|
G|-5--5--5--5-5-5---7-7-7-7-|
D|--------------------------|
A|--------------------------|
E|--------------------------|

(2, 3, 4)

Verse and Chorus:

e|-5--5--5--5-5-5---6--6--6--6-6-6---5--5--5--5-5-5---6--6--6--6-6-6---|
B|-6--6--6--6-6-6/8-8--8--8--8-8-8\6-6--6--6--6-6-6/8-8--8--8--8-8-8\6-|
G|-5--5--5--5-5-5---7--7--7--7-7-7---5--5--5--5-5-5---7--7--7--7-7-7---|
D|---------------------------------------------------------------------|
A|---------------------------------------------------------------------|
E|---------------------------------------------------------------------|

Breakdown:

  (Play this part x3)

e|-5---6---8--------8----10---6------|
B|-6---8---10-------10---11---8------|
G|-5---7---9--------9----10---7------|
D|-----------------------------------|
A|-----------------------------------|
E|-----------------------------------|

  (Play this part x1)

e|-5---6---8-----6-6-6-6-6-6-6-6-6-6-|
B|-6---8---10----8-8-8-8-8-8-8-8-8-8-|
G|-5---7---9-----7-7-7-7-7-7-7-7-7-7-|
D|-----------------------------------|
A|-----------------------------------|
E|-----------------------------------|

And that's all that is played by the acoustic!