Misc Unsigned Bands - Lo - So Julie Chords & Tabs

 

Lo - So Julie Chords & Tabs

Misc Unsigned Bands Chords & Tabs

Version: 1 Type: Tab 0 ratings
1 star 2 stars 3 stars 4 stars 5 stars
comments

Lo - So Julie Tab

Song : So Julie
Band : LO (Jason Lo) - from mp3.com
Tabbed By : Diamond Jerry (Raptureboy182@yahoo.com)

Listen carefully for the timing, you can play the rhythm on the 2nd part of this song...


Standard Tuning
------------------------------------------------------------------------------

[Intro]
e|----------------------------------------------------------3----------------|
B|---3-----3------3-----3--------3-------3-------3-------3----3--3-----------|
G|-----0~----0~-----0~----0~-------2~------0~------0~------0---0-------------|
D|-----------------------------0---------------------------------------------|
A|--------------------------------------3------------------------------------|
E|--3------3-----0------0-----------------------0-------0--------------------|


[Verse]
e|-----3--------3---------3--------3----------3----------3---------3---------3------|
B|---3--3-3---3--3-3----3--3-3---3--3-3----3---3-3-----3--3-3----3--3-3----3--3-3---|
G|----0--0-----0--0------0--0-----0--0------2---2-------0--0------0--0------0--0----|
D|----------------------------------------0-----------------------------------------|
A|----------------------------------------------------3-----------------------------|
E|--3--------3---------0--------0-------------------------------0--------0----------|
So Julie, I saw your eyes again
Did we talk last night about the little things

e|-----3--------3---------3--------3----------3----------3---------3---------3------|
B|---3--3-3---3--3-3----3--3-3---3--3-3----3---3-3-----3--3-3----3--3-3----3--3-3---|
G|----0--0-----0--0------0--0-----0--0------2---2-------0--0------0--0------0--0----|
D|----------------------------------------0-----------------------------------------|
A|----------------------------------------------------3-----------------------------|
E|--3--------3---------0--------0-------------------------------3--------3----------|
So Julie, does it matter when I call
I think you're awful young to try
and shoot the world down on your own


[Pre-chorus]
e|------3---------3---------3--------3-----------3----------3---------3-------3~----|
B|----3--3-3----3--3-3----3--3-3---3--3-3-----3---3-3----3---3-3----3--3-3----3~----|
G|-----0--0------0--0------0--0-----0--0-------2---2------2---2------0--0-----0~----|
D|------------------------------------------0-----------0---------------------2~----|
A|--3---------3----------------------------------------------------3----------3~----|
E|-----------------------0--------0-------------------------------------------------|
But if we dance awhile, and we go cut it loose
We take some time, how about a little time
We find our own abuse

e|----------------------3333----|
B|----3-----------------3333----|
G|---2---0~-------------0000----|
D|--0---2------(4x)-----2222----|
A|-----3----------------3333----|
E|------------------------------|
ooh ooh...ooh yeah....


[Chorus]
e|--3-3-3-3---2-2-2-2---3-3-3-3---3-3-3-3------|-----------------------------------3~|
B|--3-3-3-3---3-3-3-3---3-3-3-3---3-3-3-3------|------3----------3----------3------3~|
G|--0-0-0-0---2-2-2-2---0-0-0-0---0-0-0-0------|---2---2-2-----0--0-0----2---2-2---0~|
D|--0-0-0-0---0-0-0-0---2-2-2-2---2-2-2-2--(2x)|--0--0--0-----2-2--2----0--0--0----2~|
A|--2-2-2-2---0-0-0-0---2-2-2-2---3-3-3-3------|-0-----------3---------0-----------3~|
E|--3-3-3-3-------------0-0-0-0----------------|-------------------------------------|
Now that we were wrong, I'm sorry that it took so long
In the world we live in often we don't know who we are
So Julie's gonna head off, cause Julie's got her head on


[Verse2]
e|--------------------------------------------------------------------------|
B|---3-----3------3-----3--------3-------3-------3-------3------------------|
G|-----0~----0~-----0~----0~-------2~------2~------0~------0----------------|
D|-----------------------------0--------0-----------------------------------|
A|---------------------------------------------3-------3--------------------|
E|--3------3-----0------0---------------------------------------------------|
Now we go find out that we've already lost enough
So now we're gonna win it back again
[ Tab from: http://www.guitartabs.cc/tabs/m/misc_unsigned_bands/lo_so_julie_tab.html ]
e|-----3--------3---------3--------3----------3----------3---------3---------3------|
B|---3--3-3---3--3-3----3--3-3---3--3-3----3---3-3-----3--3-3----3--3-3----3--3-3---|
G|----0--0-----0--0------0--0-----0--0------2---2-------0--0------0--0------0--0----|
D|----------------------------------------0-----------------------------------------|
A|----------------------------------------------------3-----------------------------|
E|--3--------3---------0--------0-------------------------------3--------3----------|
So Julie, when you think of me does it come to mind
We're living in the same room
in the same house on the same street in the same town


[Pre-chorus]
e|------3---------3---------3--------3-----------3----------3---------3-------33333-|
B|----3--3-3----3--3-3----3--3-3---3--3-3-----3---3-3----3---3-3----3--3-3----33333-|
G|-----0--0------0--0------0--0-----0--0-------2---2------2---2------0--0-----00000-|
D|------------------------------------------0-----------0---------------------22222-|
A|--3---------3----------------------------------------------------3----------33333-|
E|-----------------------0--------0-------------------------------------------------|
Why don't you come and dance awhile, and we go and cut it loose
We take some time, well how about a little time..... we find our own well...


[Chorus] - guitar2 play the plucking -
e|--3-3-3-3---2-2-2-2---3-3-3-3---3-3-3-3------|----------------------------------3333-|
B|--3-3-3-3---3-3-3-3---3-3-3-3---3-3-3-3------|------3----------3----------3-----3333-|
G|--0-0-0-0---2-2-2-2---0-0-0-0---0-0-0-0------|---2---2-2-----0--0-0----2---2-2--0000-|
D|--0-0-0-0---0-0-0-0---2-2-2-2---2-2-2-2--(2x)|--0--0--0-----2-2--2----0--0--0---2222-|
A|--2-2-2-2---0-0-0-0---2-2-2-2---3-3-3-3------|-0-----------3---------0----------3333-|
E|--3-3-3-3-------------0-0-0-0----------------|---------------------------------------|
Every night I rush to sleep and every point of you surrounds me
If you see me now I haven't got that far because I know
what you're like, but I don't know who you are
Julie's gonna head off, cause Julie's got her head...


[Bridge]
e|--3-3-3-3---3-3-3-3---3-3-3-3---3-3-3-3-----3-3-3-3---3-3-3-3---3-3-3-3---3-3-3-3--3~|
B|--3-3-3-3---3-3-3-3---3-3-3-3---3-3-3-3-----3-3-3-3---3-3-3-3---3-3-3-3---3-3-3-3--3~|
G|--0-0-0-0---0-0-0-0---0-0-0-0---0-0-0-0-----0-0-0-0---0-0-0-0---0-0-0-0---0-0-0-0--0~|
D|--0-0-0-0---0-0-0-0---2-2-2-2---0-0-0-0-----0-0-0-0---0-0-0-0---2-2-2-2---2-2-2-2--0~|
A|--2-2-2-2---0-0-0-0---2-2-2-2---0-0-0-0-----2-2-2-2---0-0-0-0---2-2-2-2---3-3-3-3--2~|
E|--3-3-3-3---2-2-2-2---0-0-0-0---2-2-2-2-----3-3-3-3---2-2-2-2---0-0-0-0------------3~|
on...on.... heeee......huuuu.huuuuu.......


[Verse3]
e|--------------------------------------------------------------------------|
B|---3-----3------3-----3--------3-------3-------3-------3------------------|
G|-----0~----0~-----0~----0~-------2~------2~------0~------0----------------|
D|-----------------------------0--------0-----------------------------------|
A|---------------------------------------------3-------3--------------------|
E|--3------3-----0------0---------------------------------------------------|
So we go find out , we've already lost enough
So now we're gonna win it back again


e|-----3--------3---------3--------3----------3----------3---------3---------3------|
B|---3--3-3---3--3-3----3--3-3---3--3-3----3---3-3-----3--3-3----3--3-3----3--3-3---|
G|----0--0-----0--0------0--0-----0--0------2---2-------0--0------0--0------0--0----|
D|----------------------------------------0-----------------------------------------|
A|----------------------------------------------------3-----------------------------|
E|--3--------3---------0--------0-------------------------------3--------3----------|
So Julie, when you think of me does it come to mind
We're living in the same room
in the same house on the same street in the same town


[Pre-chorus]
e|------3---------3---------3--------3-----------3----------3---------3-------3~----|
B|----3--3-3----3--3-3----3--3-3---3--3-3-----3---3-3----3---3-3----3--3-3----3~----|
G|-----0--0------0--0------0--0-----0--0-------2---2------2---2------0--0-----0~----|
D|------------------------------------------0-----------0---------------------2~----|
A|--3---------3----------------------------------------------------3----------3~----|
E|-----------------------0--------0-------------------------------------------------|
why don't you come and dance awhile, and we go and cut it loose
We take some time, well how about a little time.. we find our own abuse


[Outro]
e|--------------------------|
B|----3--------------3------|
G|---2---0~---------2---0~--|
D|--0---2----(3x)--0--------|
A|-----3--------------3-----|
E|--------------------------|
ooh ooh...ooh yeah....

------------------------------------------------------------------------------
Any comments or corrections,just mail me to Raptureboy182@yahoo.com/ICQ #115343571
Comments