Misc Unsigned Bands - Lesser Known Saint - The Torn Prince Chords & Tabs

 

Lesser Known Saint - The Torn Prince Chords & Tabs

Misc Unsigned Bands Chords & Tabs

Version: 1 Type: Tab 0 ratings
1 star 2 stars 3 stars 4 stars 5 stars
comments

Lesser Known Saint - The Torn Prince Tab

   
----------------------------------------------------------------------------
			     THE TORN PRINCE - LESSER KNOWN SAINT
----------------------------------------------------------------------------
Tabbed by:LKSMike
This is the newest song from LKS.  Its a great metal song with some sweet licks
check us out at : www.lksband.4t.com

Tuning: Drop Db

Intro-quiet and some distortion.
Eb|---------------||
Bb|---------------||
Gb|---------------||
Db|-7-7-7-7-8-8---||
Ab|-7-7h8-8-8-8---||
Db|-0-0-0-0-0-0---||Play 8 times

	Enter with pick slide-Verses played with heavy distortion
Eb|---------------------------------5xxxx5---12xxxx12----------------------|
Bb|---------------------------------5xxxx5---12xxxx12----------------------|
Gb|---------------------------------7xxxx7---14xxxx14----------------------|
Db|-9-9-9---9---9---11--11-12--11---7xxxx7---14xxxx14---5\7--5\7--7--------|
Ab|-9-9-10--10--10--9---9--9---9----5xxxx5---12xxxx12---5\7--5\7--7--------|
Db|-9-9-9---9---9---9---9--9---9----5xxxx5---12xxxx12---5\7--5\7--7--------|
	Repeat 2 times

	Pre-Chorus
Eb|------------------------------------------------------------------------|
Bb|------------------------------------------------------------------------|
Gb|------------------------------------------------------------------------|
Db|-9-9-9-9/7-7--5-5-5-5\7-7--9-9-9-9/7--------+12-------------------------|
Ab|-9-9-9-9/7-7--5-5-5-5\7-7--9-9-9-9/7-----+12----------------------------|
Db|-9-9-9-9/7-7--5-5-5-5\7-7--9-9-9-9/7--+12-------------------------------|
[ Tab from: http://www.guitartabs.cc/tabs/m/misc_unsigned_bands/lesser_known_saint_the_torn_prince_tab.html ]
	Chorus
Eb|------------------------------------------------------------------------|
Bb|------------------------------------------------------------------------|
Gb|------------------------------------------------------------------------|
Db|-3-3-3-3--5-5-5-5--6-0-0--6-0--1-0-1-0----------------------------------|
Ab|-3-3-3-3--5-5-5-5--6-0-0--6-0--1-0-1-0----------------------------------|
Db|-3-3-3-3--5-5-5-5--6-0-0--6-0--1-0-1-0----------------------------------|

Eb|------------------------------------------------------------------------|
Bb|------------------------------------------------------------------------|
Gb|--------------------------7\10-10\12-12---------------------------------|
Db|-3-3-3-3--5-5-5-5--6-0-0------------------------------------------------|
Ab|-3-3-3-3--5-5-5-5--6-0-0--5\8--8\\10-10---------------------------------|
Db|-3-3-3-3--5-5-5-5--6-0-0------------------------------------------------|
	Repeat 2 times
	
	Interlude
Eb|------------------------------------------------------------------------|
Bb|------------------------------------------------------------------------|
Gb|------------------------------------------------------------------------|
Db|-2-2-2-2-+3-+3-+3-+3----------------------------------------------------|
Ab|-2-2-2-2-+3-+3-+3-+3----------------------------------------------------|
Db|-2-2-2-2-+3-+3-+3-+3----------------------------------------------------|
	Repeat 4 times

	Bridge---ALL HARMONICS!
Eb|------------------------------------------------------------------------|
Bb|------------------------------------------------------------------------|
Gb|------------------------------------------------------------------------|
Db|---9--9---7---5--5--7------9--9----7------12----------------------------|
Ab|--9-9----7---5-5------7---9-9-----7-----12------------------------------|
Db|-9---9--7---5---5--7-7---9---9---7----12--------------------------------|

Order of song :

Intro 
Verse
Pre Ch
Chorus
Inter
Verse
Pre Ch
Chorus
Inter
Bridge
Pre Ch
Chorus
Inter

| /  slide up
| \  slide down
| h  hammer-on
| p  pull-off
| ~  vibrato
| +  harmonic
| x  Mute note
===============================================================================
Comments