Misc Unsigned Bands - Kreemee Kofee - Transcend Chords & Tabs

 

Kreemee Kofee - Transcend Chords & Tabs

Misc Unsigned Bands Chords & Tabs

Version: 1 Type: Tab 0 ratings
1 star 2 stars 3 stars 4 stars 5 stars
comments

Kreemee Kofee - Transcend Tab

   
-------------------------------------------------------------------------------
			     Transcend - Kreemee Kofee
-------------------------------------------------------------------------------

This is my band and my friends have been asking me for the tab and i thought it would be easier like this
HERE YOU GO GUYS
Tabbed by: Me!
Email: angelofdeath448@yahoo.com


Tuning: Standard (EADGBe)

Intro
e|-5-3-0---0-1-3----1------55p3p00h1h3-3-3p1---------------------------------|
B|---------------------3-----------------------1/3-----------------------------|
G|-----------------------------------------------------------------------------|
D|-----------------------------------------------------------------------------|
A|-----------------------------------------------------------------------------|
E|-----------------------------------------------------------------------------|

e|-5-------5-------5-------5-------5-------5-------5-------5-------3-------3-------3-----|
B|---6---6---6---6---6---6---6---6---5---5---5---5---5---5---5---5---3---3---3---3---3---|
G|-----7-------7-------7-------7-------5-------5-------5-------5-------5-------5-------5-|
D|---------------------------------------------------------------------------------------|
A|---------------------------------------------------------------------------------------|
E|---------------------------------------------------------------------------------------|

e|---3-------1-------1-------1-------1-------0-------0-------1-------0h1-----|
B|-3---3---3---1---1---1---1---1---1---1---1---1---1---1---1---3---3-----3---|
G|-------5-------3-------3-------3-------3-------0-------0-------2---------2-|
D|---------------------------------------------------------------------------|
A|---------------------------------------------------------------------------|
E|---------------------------------------------------------------------------|

e|-0-------0-------1-------0h1-------0h1-------0h1-------0h1-------0h1-----|
B|---1---1---1---1---3---3-----3---3-----3---3-----3---3-----3---3-----3---|
G|-----0-------0-------2---------2---------2---------2---------2---------2-|

e|-5-------5-------5-------5-------5-------5-------5-------5-------3-------3-------3-----|
B|---6---6---6---6---6---6---6---6---5---5---5---5---5---5---5---5---3---3---3---3---3---|
G|-----7-------7-------7-------7-------5-------5-------5-------5-------5-------5-------5-|
D|---------------------------------------------------------------------------------------|
A|---------------------------------------------------------------------------------------|
E|---------------------------------------------------------------------------------------|

e|---3-------1-------1-------1-------1-------0-------0-------1-------0h1-----|
B|-3---3---3---1---1---1---1---1---1---1---1---1---1---1---1---3---3-----3---|
G|-------5-------3-------3-------3-------3-------0-------0-------2---------2-|
D|---------------------------------------------------------------------------|
A|---------------------------------------------------------------------------|
E|---------------------------------------------------------------------------|

e|-0-------0-------1-------0h1-------0h1-------0h1-------0h1-------0h1-----|
B|---1---1---1---1---3---3-----3---3-----3---3-----3---3-----3---3-----3---|
G|-----0-------0-------2---------2---------2---------2---------2---------2-|

e|-3-------3-------5-------5-------3-------3-------5-------5-------3-------3-------3------|
B|---1---1---1---1---3---3---3---3---1---1---1---1---3---3---3---3---1---1---1---1---1----|
G|-----1-------1-------3-------3-------1-------1-------3-------3-------1-------1-------1--|
D|----------------------------------------------------------------------------------------|
A|----------------------------------------------------------------------------------------|
E|----------------------------------------------------------------------------------------|

[ Tab from: http://www.guitartabs.cc/tabs/m/misc_unsigned_bands/kreemee_kofee_transcend_tab.html ]
e|-5-------5-------5-------5-------5-------5-------5-------5-------3-------3-------3-----|
B|---6---6---6---6---6---6---6---6---6---6---6---6---6---6---6---5---5---5---5---5---5---|
G|-----7-------7-------7-------7-------5-------5-------5-------5-------5-------5-------5-|
D|---------------------------------------------------------------------------------------|
A|---------------------------------------------------------------------------------------|
E|---------------------------------------------------------------------------------------|

e|---3-------1-------1-------1-------1-------0-------0-------0-------1-------1-------0----|
B|-5---5---5---3---3---3---3---3---3---3---3---1---1---1---1---1---1---1---1---1---1---1--|
G|-------5-------3-------3-------3-------3-------0-------0-------0-------2-------2--------|
D|----------------------------------------------------------------------------------------|
A|----------------------------------------------------------------------------------------|
E|----------------------------------------------------------------------------------------|

e|-----0-------1-------1-------0-------0--------|
B|---1---1---1---1---1---1---1---1---1---1---0--|
G|-0-------0-------2-------2-------0-------0----|
D|----------------------------------------------|
A|----------------------------------------------|
E|----------------------------------------------|


e|-0-------0-----------0---------------0-------------------------------------|
B|---1---1----1-----1------1-------1-----------------------------------------|
G|-----0---------0-------------0---------------------------------------------|
D|---------------------------------------------------------------------------|
A|---------------------------------------------------------------------------|
E|---------------------------------------------------------------------------|

e|-3-------3--------5-------5--------3-------3-------5-------5-------5-------5----|
B|---1---1---1----1---3---3---3----3---1---1---1---1---3---3---3---3---3---3------|
G|-----1-------1--------3-------3--------1-------1-------3-------3-------3--------|
D|--------------------------------------------------------------------------------|
A|--------------------------------------------------------------------------------|
E|--------------------------------------------------------------------------------|

e|-------5-------5-------5-------5-------5-------5-------5-------5-------5------5-------|
B|-3---3---5---5---5---5---5---5---6---6---6---6---6---6---6---6---6---6---6--6---6---6-|
G|---3-------5-------5-------5-------5-------5-------5-------7-------7------7-------7---|
D|--------------------------------------------------------------------------------------|
A|--------------------------------------------------------------------------------------|
E|--------------------------------------------------------------------------------------|

e|-5-------5-------5-------3-------3-------3-------3-------1-------1-------1-------1----|
B|---5---5---5---5---5---5---5---5---5---5---5---5---5---5---3---3---3---3---3---3---3--|
G|-----5-------5-------5-------5-------5-------5-------5-------3-------3-------3-------3|
D|--------------------------------------------------------------------------------------|
A|--------------------------------------------------------------------------------------|
E|--------------------------------------------------------------------------------------|

e|---0-------0-------1-------1-------0-------0-------1-------1-------3-------3-------3--|
B|-3---1---1---1---1---1---1---1---1---1---1---1---1---1---1---1---1---3---3---3---3----|
G|-------0-------0-------2-------2-------0-------0-------2-------2-------4-------4------|
D|--------------------------------------------------------------------------------------|
A|--------------------------------------------------------------------------------------|
E|--------------------------------------------------------------------------------------|

e|-------1-------1-------1-------------1----1--------------------------------|
B|-3---3---1---1---1---1---1------1---------1--------------------------------|
G|---4-------2-------2-------2--------------2--------------------------------|
D|------------------------------------------3--------------------------------|
A|---------------------------------------------------------------------------|
E|---------------------------------------------------------------------------|


| /  slide up
| \  slide down
| h  hammer-on
| p  pull-off
| ~  vibrato
| +  harmonic
| x  Mute note
===============================================================================
Comments