Misc Unsigned Bands - Klakk - Lebeges Chords & Tabs

 

Klakk - Lebeges Chords & Tabs

Misc Unsigned Bands Chords & Tabs

Version: 1 Type: Tab 0 ratings
1 star 2 stars 3 stars 4 stars 5 stars
comments

Klakk - Lebeges Tab

-----------------------------------------------------------------------------
			     Lebeges - Klakk
-----------------------------------------------------------------------------
Song name: Lebeges
Band name: Klakk
Tabbed by: skimygod
Email: skimygod@freemail.hu

This is my second tab!!! Klakk is the best!!! It is a hungarian rock band and they
really rock!!! You must listen to it!!! There are a lot of fans who'd like to play
their songs and thats why i tabbed it!!! Enjoy!!

Tuning: Drop D

intro:
with flanger

e|------------|
B|---8--------|
G|------------|  many times
D|------------|
A|------------|
D|------------|

verse:
with flanger and wah

e|--------------------------------------------------------|
B|--8-8888b--10-10101010b-11-11111111b----------13-11-10--|
G|--------------------------------------10-10-------------|
D|--------------------------------------------------------|
A|--------------------------------------------------------|
D|--------------------------------------------------------|

end whit this:

e|----------------------|
B|--13131313131313b13b--|
G|----------------------|
D|----------------------|
A|----------------------|
D|----------------------|

chorus:

e|-----------------------------|
B|-----------------------------|
G|-------------------12121212--|
D|3-5535357--3-55535-xxxxxxxx--|
A|3-5535357--3-55535-10101010--|
D|3-5535357--3-55535-----------|

end:
[ Tab from: http://www.guitartabs.cc/tabs/m/misc_unsigned_bands/klakk_lebeges_tab.html ]
e|--------------|
B|--------------|
G|-----7777-----| <<<< rake
D|-----7777-----|
A|-----5555-----|
D|--------------|

interlude:

e|--------------------------|
B|--------------------------|
G|--------------------------|
D|--55--33--11--00--33------|
A|--55--33--11--00--33------|
D|--55--33--11--00--33------|

verse2:

e|------10--------10----------10-------------------|
B|-------------------------------------------------|
G|-------------------------------------------------|
D|--55---------------------------------------------|
A|--55---------------------------------------------|
D|--55------5788------781010------7810-10-10-1087--|

solo:

e|----------------------8---------------|
B|--8-8/10/11-11/10-10----11-10/8-------|
G|--------------------------------------|
D|--------------------------------------|
A|--------------------------------------|
D|--------------------------------------|

e|---10--------------------------------|
B|------8--8-10-11--10/11-13-----------|
G|-------------------------------------|
D|-------------------------------------|
A|-------------------------------------|
D|-------------------------------------|

e|-------------10------8-8/10-111111-10----------------------------------|
B|--8-8-8-10-11----11----------------------8--8-8-10-11--11-10-----------|
G|-----------------------------------------------------------------------|
D|-----------------------------------------------------------------------|
A|-----------------------------------------------------------------------|
D|-----------------------------------------------------------------------|

Thats it!! Enjoy!!
Comments