Misc Unsigned Bands - Ken Ashcorp - Crazy Chicks Chords & Tabs

 

Ken Ashcorp - Crazy Chicks Chords & Tabs

Misc Unsigned Bands Chords & Tabs

Version: 1 Type: Bass Tab 0 ratings
1 star 2 stars 3 stars 4 stars 5 stars
comments

Ken Ashcorp - Crazy Chicks Bass Tab

Ken Ashcorp - Crazy Chicks - Bass Cover

Hi there!

You can check my cover on youtube: https://www.youtube.com/watch?v=IIG3lcGLGo4

Also check Kens youtube profile for more song: http://www.youtube.com/user/kenashcorp?feature=watch
and check my profile for other covers :)





G|---------------------------------------------------------------------|
D|---------------------------------------------------------------------|
A|11-467-679\4-42-------------9/11-467-679-99911-111111111111----------|
E|---------------4-4-4--2424-------------------------------------------|

(thats 11 not 2x1)


G|--------------------------------------------------------------------------------|
D|--------------------------------------------------------------------------------|
A|11-11-111167-7777-77-4-44442----------9/11-111111111167-77777799999911-11111111-|
E|------------------------------4-4442424-----------------------------------------|

G|-----------------------------------------------------------------------------|
D|--------------------------------------------------------------------9--------|
A|11111111111167-7777779444442----------9/11-111111111167-777777999999-9999-99-|
E|------------------------------4-4442424--------------------------------------|

REF 

G|---------------------------------------------------------------------|
D|---------------------------------------------------------------------|
A|777777777777777711111111111111119999911911---------------------------|
E|---------------------------------------------------------------------|

G|---------------------------------------------------------------------|
D|---------------------------------------------------------------------|
A|77777776-777777711111111111111119-9999111314-------------------------|
E|---------------------------------------------------------------------|

G|---------------------------------------------------------------------|
D|---------------------------------------------------------------------|
A|777777777777777711111111111111119-999911911--------------------------|
E|---------------------------------------------------------------------|

G|---------------------------------------------------------------------|
D|---------------------------------------------------------------------|
A|77777776-7777777-----------------------------------------------------|
E|----------------4444444442-2424--------------------------------------|



[ Tab from: http://www.guitartabs.cc/tabs/m/misc_unsigned_bands/ken_ashcorp_crazy_chicks_btab.html ]
G|--------------------------------------------------------------------------------|
D|--------------------------------------------------------------------------------|
A|11111111111167-777777-444442----------9/11-111111111167-77777799999911-11111111-|
E|------------------------------4-4442424-----------------------------------------|

G|-------------------------------------------------------------------------------|
D|----------------------------------------------------------------------9--------|
A|11111111111167-777777-444442----------9/11-111111111167-77777799999911-11111111|
E|------------------------------4-4442424----------------------------------------|

G|-------------------------------------------------------------------|
D|-------------------------------------------------------------------|
A|11111111111167-7777779444442----------9/11-111111111167-7777779----|
E|------------------------------4-4442424----------------------------|

G|---------------------------------------------------------------------|
D|---------------------------------------------------------------------|
A|7777777777777777-----------------------------------------------------|
E|----------------444444444\222222222----------------------------------|  x2

G|---------------------------------------------------------------------|
D|---------------------------------------------------------------------|
A|77-7-7-7-------------------------------------------------------------|
E|---------------------------------------------------------------------|


G|---------------------------------------------------------------------|
D|---------------9-----------------------------------------------------|
A|9911-1111111111-9-9999911911-----------------------------------------|
E|---------------------------------------------------------------------|

G|---------------------------------------------------------------------|
D|---------------------------------------------------------------------|
A|77777776-777777711111111111111119-9999111314-------------------------|
E|---------------------------------------------------------------------|

G|---------------------------------------------------------------------|
D|---------------------------------------------------------------------|
A|777777777777777711111111111111119999911911---------------------------|
E|---------------------------------------------------------------------|

G|---------------------------------------------------------------------|
D|---------------------------------------------------------------------|
A|77777776-7777777-----------------------------------------------------|
E|----------------4444444442-2222467-----------------------------------|

G|---------------------------------------------------------------------|
D|---------------------------------------------------------------------|
A|77777776-7777777-----------------------------------------------------|
E|----------------4444444442-2424--------------------------------------|
Comments