Misc Unsigned Bands - Josies Boyfriends - Please Die If You Disagree Chords & Tabs

 

Josies Boyfriends - Please Die If You Disagree Chords & Tabs

Misc Unsigned Bands Chords & Tabs

Version: 1 Type: Tab 0 ratings
1 star 2 stars 3 stars 4 stars 5 stars
comments

Josies Boyfriends - Please Die If You Disagree Tab

   
Josies Boyfriends is : 3 die-hard blink-182 fans. This song is our first one.
-------------------------------------------------------------------------------
			     Please Die If You Disagree - Josie's Boyfriends
-------------------------------------------------------------------------------
Tabbed by: Tom Armstrong
Email: lorenzomerlini@hotmail.com

Tuning: standard

INTRO
e|-------------------------|
B|-------------------------|
G|-6666666666-8888888888---|
D|-7777777777-9999999999---|	x2
A|-7777777777-9999999999---|
E|-------------------------|

BRIDGE
e|-----------------------|
B|-----------------------|
G|-99999999-111111-x-7---|
D|-99999999-111111-x-7---|
A|-77777777-9-9-9--x-5---|
E|-----------------------|

VERSE
e|------------------------------|
B|------------------------------|
G|-77777777-99999999------------|
D|-77777777-99999999---x4---7---|
A|-55555555-77777777--------7---|
E|--------------------------5---|
[ Tab from: http://www.guitartabs.cc/tabs/m/misc_unsigned_bands/josies_boyfriends_please_die_if_you_disagree_tab.html ]
CHORUS
e|-------------------------------------------|
B|-------------------------------------------|
G|-------------------------------------------|
D|-3-3-3-3--------5-5-5-5--------555-0-3-----|
A|-3-3-3-3--x4----5-5-5-5--x4----555-0-3-----|
E|-1-1-1-1--------3-3-3-3--------333-0-1-----|
     * * *          * * *
e|--------------------------------------------------------|
B|--------------------------------------------------------|
G|----------------3-3-3-3--------5-5-5-5--------555-0-----|
D|-3-3-3-3--------3-3-3-3--x4----5-5-5-5--x4----555-0-3---|
A|-3-3-3-3--x4----1-1-1-1--------3-3-3-3--------333-0-3---|
E|-1-1-1-1--------------------------------------------1---|
     * * *          * * *          * * *
e|--------------------------------------------------------------------|
B|--------------------------------------------------------------------|
G|---------------------------------------------------------3333333-7--|
D|-3-3-3-3--------5-5-5-5--------555-0-3----3-3-3-3--------3333333-7--|
A|-3-3-3-3--x4----5-5-5-5--x4----555-0-3----3-3-3-3--x4----1111111-5--|
E|-1-1-1-1--------3-3-3-3--------333-0-1----1-1-1-1-------------------|
     * * *          * * *                     * * *

OUTRO
e|-77777777-1010101010101010-1212121212121212-1010101010101010------|
B|-77777777-1010101010101010-1212121212121212-1010101010101010------|
G|-88888888-1111111111111111-1313131313131313-1111111111111111------|
D|-99999999-1212121212121212-1414141414141414-1212121212121212--x2--|
A|-99999999-1212121212121212-1414141414141414-1212121212121212------|
E|-77777777-1010101010101010-1212121212121212-1010101010101010------|

LAST CHORD
e|-----|
B|-----|
G|-----|
D|-7---|
A|-7---|
E|-5---|


Order :
Intro
Bridge
Verse
Chorus
Verse
Chorus
Outro
Bridge
Last Chord


| /  slide up
| \  slide down
| h  hammer-on
| p  pull-off
| ~  vibrato
| +  harmonic
| *  Mute note
===============================================================================
Comments