Misc Unsigned Bands - Jard - Screaming Chords & Tabs

 

Jard - Screaming Chords & Tabs

Misc Unsigned Bands Chords & Tabs

Version: 1 Type: Tab 0 ratings
1 star 2 stars 3 stars 4 stars 5 stars
comments

Jard - Screaming Tab

-------------------------------------------------------------------------------
			    Screaming - Jard
-------------------------------------------------------------------------------
 Hello, Im Daniel Strezinski I am also a apart of the basement band Jard.
 My fellow band members and I love music. We are hoping to some day be famous
 so look at our song and tell us what you think.

Tabbed by: Jard_Guitar
Email: Strezinski22@hotmail.com

Tuning: (E,A,D,G,B,e) {Slow song the rhytem is not to hard try to figure it}
[ Tab from: http://www.guitartabs.cc/tabs/m/misc_unsigned_bands/jard_screaming_tab.html ]
    Intro (x2)
e|--------------------------------------------------------------------------------------|
B|--------------------------------------------------------------------------------------|
G|---------------------------------0-----0----0-----------------------------------------|
D|---------0-----0-----0-----0----2----2----0-------------------------------------------|
A|--------2-----2-----2-----2----0----3----2--------------------------------------------|
E|------0-----3-----0-----3-------------------------------------------------------------|
       Verse (x4) Play this first
e|----------------------------------------------------------------------------------|
B|----------------------------------------------------------------------------------|
G|---------------------------------------------------------------------0----0----0--|
D|--------0-----0-------0-----0--------0-----0-------0-----0-------2----2----0------|
A|-------2-----2-------2-----2--------2-----2-------2-----2-------0----3----2-------|
E|------0-----3-------0-----3--------0-----3-------0-----3--------------------------|
    2nd version Verse (x4)   After 1st verse play this
e|------------------------------------------|
B|--------------0-----0--------0---------0--|
G|---------------0-----0----0---0----0---0--|
D|----------0------0-------2--------2-------|
A|---------2------2-------0--------3--------|
E|-------0------3---------------------------|
    Chorus (x4)
e|-------------------------------------------------|
B|-------------------------------------------------|
G|-------------------------------------------------|
D|---0---0-0-0----0-0-0---000---0-0--0--0-0--0--0--|
A|---2---2-2-2----2-2-2---222---2-2--2--2-2--2--2--|
E|---0---0-0-0----0-0-0---003---3-3--3--3-3--3--3--|

    2nd version Chorus (x4) Goes from bassy to heavy distortion
e|-------------------------------------------------------------------|
B|-------------------------------------------------------------------|
G|-------------------------------------------------------------------|
D|---0---0-0-0----0-0-0---000---0-0--0--0-0--0--0---0---0-0-0----00--|
A|---2---2-2-2----2-2-2---222---2-2--2--2-2--2--2---2---2-2-2----22--|
E|---0---0-0-0----0-0-0---003---3-3--3--3-3--3--3---0---0-0-0----00--|
        (x2)
e|-----------------------------------|
B|-----------------------------------|
G|-----------------------------------|
D|----222-22-222-22------------------|
A|----000-00-333-33--222-22--222-22--|
E|-------------------000-00--333-33--|
    Outro
e|-----------------------------------------------------------------------------------|
B|-----------------------------------------------------------------------------------|
G|-----------------0---0---0---------------------------------------------------------|
D|--------0---0---2---2---0----------------------------------------------------------|
A|-------2---2---0---3---2-----------------------------------------------------------|
E|-----0---3-------------------------------------------------------------------------|

Song Order:
Intro
Verse(x4)
2nd version Verse(x4)
Chorus
2nd version Verse (x4)
Chorus
2nd version Chorus
2nd vesion Verse(x2)<<<<<
Comments