Misc Unsigned Bands - Ithaca - Crying In The Dark Chords & Tabs

 

Ithaca - Crying In The Dark Chords & Tabs

Misc Unsigned Bands Chords & Tabs

Version: 1 Type: Tab 0 ratings
1 star 2 stars 3 stars 4 stars 5 stars
comments

Ithaca - Crying In The Dark Tab

   
Ithaca - Crying in the dark (www.ithacaweb.net)
Tabbed by: Xavieres
Standard tuning

x = string mute
\ = slide down
b = bend
PM= Palm Mute

Riff 1 (Acoustic guitar): x2
|-0----0-0---0----0-0---2----2-2---2----2-2---|-1----1-1---1----1-1---0----0-0---0----0-0---|
|-2----2-2---2----2-2---2----2-2---2----2-2---|-1----1-1---1----1-1---0----0-0---0----0-0---|
|-2----2-2---2----2-2---2----2-2---2----2-2---|-2----2-2---2----2-2---1----1-1---1----1-1---|
|-2----2-2---2----2-2---0----0-0---0----0-0---|-3----3-3---3----3-3---2----2-2---2----2-2---|
|-0----0-0---0----0-0---0----0-0---0----0-0---|-3----3-3---3----3-3---2----2-2---2----2-2---|
|---------------------------------------------|-1----1-1---1----1-1---0----0-0---0----0-0---|
\___________________x3_______________________/


Riff 2 (Distortion guitar): x2
|---------------------------------------------------------------|
|---------------------------------------------------------------|
|-------------------------------------------------4-x-4-x-6-----|
|-4-x-4-x-4-x-4-x-6-x-6-x-6-x-6-x-7-x-7-x-7-x-7-x-4-x-4-x-6---2-|
|-4-x-4-x-4-x-4-x-6-x-6-x-6-x-6-x-7-x-7-x-7-x-7-x-2-x-2-x-4---2-|
|-2-x-2-x-2-x-2-x-4-x-4-x-4-x-4-x-5-x-5-x-5-x-5-x-------------0-|


Chorus: 
|------------------------------|
|------------------------------|
|--------------4-------6-------| x2
|-4------------4-------6-------|
|-4------------2-------4-------|
|-2----------------------------|

|-----------------------------------------------------------------|
|-----------------------------------------------------------------|
|-----------------7-7-7-7-7-7-7-7-4-4-4-4-4-4-4-4-6-6-6-6-6-6-6-6-|
|-4-4-4-4-4-4-4-4-x-x-x-x-x-x-x-x-x-x-x-x-x-x-x-x-x-x-x-x-x-x-x-x-|
|-4-4-4-4-4-4-4-4-5-5-5-5-5-5-5-5-2-2-2-2-2-2-2-2-4-4-4-4-4-4-4-4-|
|-2-2-2-2-2-2-2-2-------------------------------------------------|

|-----------------------------------|
|-----------------------------------|
|-----------------------------------|
|-4---------------------------4--4--|
|-4---------------------------4--4--|
|-2---------------------------2--2--|
                              \PM/

(Repeat Riff 1: x2)
(Repeat Riff 2: x2)


Chorus: 
|------------------------------|
|------------------------------|
|--------------4-------6-------| x2
|-4------------4-------6-------|
|-4------------2-------4-------|
|-2----------------------------|

|-----------------------------------------------------------------|
|-----------------------------------------------------------------|
|-----------------7-7-7-7-7-7-7-7-4-4-4-4-4-4-4-4-6-6-6-6-6-6-6-6-|
|-4-4-4-4-4-4-4-4-x-x-x-x-x-x-x-x-x-x-x-x-x-x-x-x-x-x-x-x-x-x-x-x-|
|-4-4-4-4-4-4-4-4-5-5-5-5-5-5-5-5-2-2-2-2-2-2-2-2-4-4-4-4-4-4-4-4-|
|-2-2-2-2-2-2-2-2-------------------------------------------------|

|------------------------------|
|------------------------------|
|--------------4-------6-------| x2
|-4------------4-------6-------|
|-4------------2-------4-------|
|-2----------------------------|
[ Tab from: http://www.guitartabs.cc/tabs/m/misc_unsigned_bands/ithaca_crying_in_the_dark_tab.html ]
|-----------------------------------------------------------------|
|-----------------------------------------------------------------|
|-----------------7-7-7-7-7-7-7-7-4-4-4-4-4-4-4-4-6-6-6-6-6-6-6-6-|
|-4-4-4-4-4-4-4-4-x-x-x-x-x-x-x-x-x-x-x-x-x-x-x-x-x-x-x-x-x-x-x-x-|
|-4-4-4-4-4-4-4-4-5-5-5-5-5-5-5-5-2-2-2-2-2-2-2-2-4-4-4-4-4-4-4-4-|
|-2-2-2-2-2-2-2-2-------------------------------------------------|

(2nd guitar)
|-----------------------------------------------------------------|
|-----------------------------------------------------------------|
|-----------------------------------------------------------------|
|-----------------7-7-7-7-7-7-7-7-4-4-4-4-4-4-4-4-6-6-6-6-6-6-6-6-|
|-----------------------------------------------------------------|
|-----------------------------------------------------------------|


Solo:
|---------------------------------------------------------------|
|---------------------------------12---11---8--5--5h7-----------|
|---------------------------------------------------------------|
|-7---6---2--4--2--0--2--0h2h4----------------------------------|
|---------------------------------------------------------------|
|-------------------------------------------------------2-------|

|-7--\\\\-7--7--\\\\-7--7--\\\\-9--\\\\-9--9--\\\\-|
|-x-------x--x-------x--x-------x-------x--x-------|
|-4--\\\\-4--4--\\\\-4--4--\\\\-6--\\\\-6--6--\\\\-|
|--------------------------------------------------|
|--------------------------------------------------|
|--------------------------------------------------|

|-10-\\\\-10-10-\\\\-10-10-\\\\-12-\\\\-12-12-\\\\-13b(14)-|
|-x-------x--x-------x--x-------x-------x--x-------x-------|
|-7--\\\\-7--7--\\\\-7--7--\\\\-9--\\\\-9--9--\\\\-10b(11)-|
|----------------------------------------------------------|
|----------------------------------------------------------|
|----------------------------------------------------------|

|---------------------------|
|---------------------------|
|---------------------------|
|-4-----------4-3-4-6-4-3-0-|
|-4-------------------------|
|-2-------------------------|


(Repeat Riff 2 once)
(Repeat Chorus once)

Then:
Chorus: 
|------------------------------|
|------------------------------|
|--------------4-------6-------| x2
|-4------------4-------6-------|
|-4------------2-------4-------|
|-2----------------------------|

|-----------------------------------------------------------------|
|-----------------------------------------------------------------|
|-----------------7-7-7-7-7-7-7-7-4-4-4-4-4-4-4-4-6-6-6-6-6-6-6-6-|
|-4-4-4-4-4-4-4-4-x-x-x-x-x-x-x-x-x-x-x-x-x-x-x-x-x-x-x-x-x-x-x-x-|
|-4-4-4-4-4-4-4-4-5-5-5-5-5-5-5-5-2-2-2-2-2-2-2-2-4-4-4-4-4-4-4-4-|
|-2-2-2-2-2-2-2-2-------------------------------------------------|

(2nd guitar)
|-----------------------------------------------------------------|---------
|-----------------------------------------------------------------|---------
|-----------------------------------------------------------------|---------
|-----------------7-7-7-7-7-7-7-7-4-4-4-4-4-4-4-4-6-6-6-6-6-6-6-6-|-7-------
|-----------------------------------------------------------------|---------
|-----------------------------------------------------------------|---------

(Repeat chorus until the end)
Comments