Misc Unsigned Bands - Internal Liars - Shadow Of The Martyr Chords & Tabs

 

Internal Liars - Shadow Of The Martyr Chords & Tabs

Misc Unsigned Bands Chords & Tabs

Version: 1 Type: Bass Tab 0 ratings
1 star 2 stars 3 stars 4 stars 5 stars
comments

Internal Liars - Shadow Of The Martyr Bass Tab

Title: Internal Liars
SubTitle: https://www.facebook.com/pages/Shadow-Of-The-Martyr/116941348486934
Artist: Shadow Of The Martyr
Album: Venom For A Dark Heart
Words: John T.
Music: John T. Quest D. & Matt O.
Copyright: Shadow Of The Martyr
Tempo = 100
Bass (Matt)

Legend
L - tied note
x - dead note
h - hammer on/pull off
b - bend
s - slide
~ - vibrato
g - ghost note
> - accentuated note
t - trill
M - palm mute
. - staccato
P - popping (bass)
S - slapping (bass)
+ - tapping
W - wide vibrato
< - fade in
w - whammy bar
= - tremolo picking
v - brush up
^ - brush down
V - pick stroke up
n - pick stroke down


F |-------|-------|-------|-------|----------|-------|
C |--0----|-------|-------|-------|----------|-------|
G |-------|-------|-------|-------|----------|-------|
C |-------|--10---|--8----|--7----|--7--8----|--0----|


----------------------------------------------------|
----------------------------------------------------|
----------------------------------------------------|
--0--0--0-----0--0--0-----0--0--0-----0--0--0-------|


----------------------------------------------------|
----------------------------------------------------|
----------------------------------------------------|
--3--3--3-----3--3--3-----3--3--3-----3--3--3-------|


----------------------------------------------------|
----------------------------------------------------|
----------------------------------------------------|
--3--3--3-----3--3--3-----3--3--3-----3--3--3-------|


----------------------------------------------------|
----------------------------------------------------|
----------------------------------------------------|
--10-10-10----10-10-10----10-10-10----10-10-10------|


----------------------------------------------------|
----------------------------------------------------|
----------------------------------------------------|
--0--0--0-----0--0--0-----0--0--0-----0--0--0-------|


----------------------------------------------------|
----------------------------------------------------|
----------------------------------------------------|
--0--0--0-----0--0--0-----0--0--0-----0--0--0-------|


----------------------------------------------------|
----------------------------------------------------|
----------------------------------------------------|
--0--0--0-----0--0--0-----0--0--0-----0--0--0-------|


----------------------------------------------------|
--------------------------0-------------------------|
----------------------------------------------------|
--0--0-----0--0-----0--0--------------10------------|


----------------------------------------------------|-------|-------|-------|
----------------------------------------------------|-------|-------|-------|
----------------------------------------------------|-------|-------|-------|
--0--0-----0--0-----0--0--0--0--0--0--0-------------|--0L---|--0----|--10---|


----------------------------------------------------|
----------------------------------------------------|
----------------------------------------------------|
--8-----------------------8--8--8--8--8--8--8--8----|


--------------------------------------------------------------------------------|
--------------------------------------------------------------------------------|
--------------------------------------------------------------------------------|
--0-----0--0--0-----0-----0-----0--0--0-----0-----0-----0--0--0-----0-----0-----|


--------------------|
--------------------|
--------------------|
0--0--0-----0-------|


--------------------------------------------------------------------------------|
--------------------------------------------------------------------------------|
--------------------------------------------------------------------------------|
--0-----0--0--0-----0-----0-----0--0--0-----0-----0-----0--0--0-----0-----0-----|


--------------------|
--------------------|
--------------------|
0--0--0-----0-------|


--------------------------------------------------------------------------------|
--------------------------------------------------------------------------------|
--------------------------------------------------------------------------------|
--10----10-10-10----10----10----10-10-10----10----10----10-10-10----10----10----|


--------------------|
--------------------|
--------------------|
10-10-10----10------|


--------------------------------------------------------------------------------|
--------------------------------------------------------------------------------|
--------------------------------------------------------------------------------|
--8-----8--8--8-----8-----8-----8--8--8-----8-----8-----8--8--8-----8-----8-----|


--------------------|
--------------------|
--------------------|
8--8--8-----8-------|


--------------------------------------------------------------------------------|
--------------------------------------------------------------------------------|
--------------------------------------------------------------------------------|
--0--0--0--0--0--0--0--0--0-----0-----0-----0-----0-----0--0--0-----0-----0-----|


--------------------|
--------------------|
--------------------|
0-----0-------------|


--------------------------------------------------------------------------------|
--------------------------------------------------------------------------------|
--------------------------------------------------------------------------------|
--0-----0-----0-----0-----0-----0-----0-----0-----0-----------------0--0--0-----|


--------------------|
--------------------|
--------------------|
------0-------------|


--------------------------------------------------------------------------------|
--------------------------------------------------------------------------------|
--------------------------------------------------------------------------------|
--10-10-10-10-10-10-10-10-10----10----10----10----10----10-10-10----10----10----|


--------------------|
--------------------|
--------------------|
10----10------------|


--------------------------------------------------------------------------------|
--------------------------------------------------------------------------------|
--------------------------------------------------------------------------------|
--8-----8-----8-----8-----8-----8-----8-----8-----8-----------------8--8--8-----|


--------------------|
--------------------|
--------------------|
------8-------------|


--------------------------------------------------------------------------------|
--------------------------------------------------------------------------------|
--------------------------------------------------------------------------------|
--0--0--0--0--0--0--0--0--0-----0-----0-----0-----0-----0--0--0-----0-----0-----|


--------------------|
--------------------|
--------------------|
0-----0-------------|


--------------------------------------------------------------------------------|
--------------------------------------------------------------------------------|
--------------------------------------------------------------------------------|
--0-----0-----0-----0-----0-----0-----0-----0-----0-----------------0--0--0-----|


--------------------|
--------------------|
--------------------|
------0-------------|


--------------------------------------------------------------------------------|
--------------------------------------------------------------------------------|
--------------------------------------------------------------------------------|
--10-10-10-10-10-10-10-10-10----10----10----10----10----10-10-10----10----10----|


--------------------|
--------------------|
--------------------|
10----10------------|

[ Tab from: http://www.guitartabs.cc/tabs/m/misc_unsigned_bands/internal_liars_shadow_of_the_martyr_btab.html ]
--------------------------------------------------------------------------------|
--------------------------------------------------------------------------------|
--------------------------------------------------------------------------------|
--8-----8-----8-----8-----8-----8-----8-----8-----8-----------------8--8--8-----|


--------------------|
--------------------|
--------------------|
------8-------------|


--------------------------------------------------------------------------------|
--------------------------------------------------------------------------------|
--------------------------------------------------------------------------------|
--0--0--0--0--0--0--0--0--0-----0-----0-----0-----0-----0--0--0-----0-----0-----|


--------------------|
--------------------|
--------------------|
0-----0-------------|


--------------------------------------------------------------------------------|
--------------------------------------------------------------------------------|
--------------------------------------------------------------------------------|
--0-----0-----0-----0-----0-----0-----0-----0-----0-----------------0--0--0-----|


--------------------|
--------------------|
--------------------|
------0-------------|


--------------------------------------------------------------------------------|
--------------------------------------------------------------------------------|
--------------------------------------------------------------------------------|
--10-10-10-10-10-10-10-10-10----10----10----10----10----10-10-10----10----10----|


--------------------|
--------------------|
--------------------|
10----10------------|


--------------------------------------------------------------------------------|
--------------------------------------------------------------------------------|
--------------------------------------------------------------------------------|
--8-----8-----8-----8-----8-----8-----8-----8-----8-----------------8--8--8-----|


--------------------|
--------------------|
--------------------|
------8-------------|


--------------------------------------------------------------------------------|
--------------------------------------------------------------------------------|
--------------------------------------------------------------------------------|
--0--0--0-----0-----0-----0--0--0-----0-----0-----------0--0--0-----0-----0--0--|


--------------------|
--------------------|
--------------------|
0-----0-----0-------|


--------------------------------------------------------------------------------|
--------------------------------------------------------------------------------|
--------------------------------------------------------------------------------|
--0--0--0-----0--0--0-----0-----0--0--0-----0-----0--0--0--0--0--0--0--0--0-----|


--------------------|
--------------------|
--------------------|
0-----0-----0-------|


--------------------------------------------------------------------------------|
--------------------------------------------------------------------------------|
--------------------------------------------------------------------------------|
--0--0--0-----0-----0-----0--0--0-----0-----0-----------0--0--0-----0-----0--0--|


--------------------|
--------------------|
--------------------|
0-----0-----0-------|


--------------------------------------------------------------------------------|
--------------------------------------------------------------------------------|
--------------------------------------------------------------------------------|
--0--------0--------0-----------------0--------0--------0-----------------0-----|


--------------------------------------------------------------------------------|
--------------------------------------------------------------------------------|
--------------------------------------------------------------------------------|
------------0--------0--------0-----------------0-----------------0-------------|


--------------------------------------------------------------------------------|
--------------------------------------------------------------------------------|
--------------------------------------------------------------------------------|
----------0-----------------------0-----------------------0---------------------|


----------------------------------------------------|
----------------------------------------------------|
----------------------------------------------------|
--0-----------------------0-------------------------|


--------------------------------------------------------------------------------|
--------------------------------------------------------------------------------|
--------------------------------------------------------------------------------|
--0--0--0-----0-----0-----0--0--0-----0-----0-----------0--0--0-----0-----0--0--|


--------------------|
--------------------|
--------------------|
0-----0-----0-------|


--------------------------------------------------------------------------------|
--------------------------------------------------------------------------------|
--------------------------------------------------------------------------------|
--0--0--0-----0--0--0-----0-----0--0--0-----0-----0--0--0--0--0--0--0--0--0-----|


--------------------|
--------------------|
--------------------|
0-----0-----0-------|


--------------------------------------------------------------------------------|
--------------------------------------------------------------------------------|
--------------------------------------------------------------------------------|
--0--0--0-----0-----0-----0--0--0-----0-----0-----------0--0--0-----0-----0--0--|


--------------------|
--------------------|
--------------------|
0-----0-----0-------|


--------------------------------------------------------------------------------|
--------------------------------------------------------------------------------|
--------------------------------------------------------------------------------|
--0--------0--------0-----------------0--------0--------0-----------------0-----|


--------------------------------------------------------------------------------|
--------------------------------------------------------------------------------|
--------------------------------------------------------------------------------|
------------0--------0--------0-----------------0-----------------0-------------|


--------------------------------------------------------------------------------|
--------------------------------------------------------------------------------|
--------------------------------------------------------------------------------|
----------0-----------------------0-----------------------0---------------------|


----------------------------------------------------|
----------------------------------------------------|
----------------------------------------------------|
--0-----------------------0-------------------------|


----------------------------------------------------------------------------|
----------------------------------------------------------------------------|
----------------------------------------------------------------------------|
--0-----0-----0-----0-----0-----0-----0--0--0--0--0--0--0-----0-----0-------|


----------------------------------------------------------------------------|
----------------------------------------------------------------------------|
----------------------------------------------------------------------------|
--0-----0-----0-----0-----0-----0-----0--0--0--0--0--0--0-----0-----0-------|


----------------------------------------------------------------------------|
----------------------------------------------------------------------------|
----------------------------------------------------------------------------|
--0-----0-----0-----0-----0-----0-----0--0--0--0--0--0--0-----0-----0-------|


----------------------------------------------------------------------------||
----------------------------------------------------------------------------||
----------------------------------------------------------------------------||
--0-----0--0--0--0--0-----0--0--0--0--0-------------------------------------||
Comments