Misc Unsigned Bands - Insomnia - Friends Chords & Tabs

 

Insomnia - Friends Chords & Tabs

Misc Unsigned Bands Chords & Tabs

Version: 2 Type: Tab 0 ratings
1 star 2 stars 3 stars 4 stars 5 stars
comments

Insomnia - Friends Tab

   
-------------------------------------------------------------------------------
			     FRIENDS - INSOMNIA
-------------------------------------------------------------------------------
Tuning:Standard EADGBe
Setup: LOADS OF DISTORTION!

Guitar 1: Chris Salway
Guitar 2: Rose Grigg

INSOMNIA:
Steen Jinks - Bass
Sam Chamberlain - Drums
Rose Grigg - Guitar/Vocals
Chris Salway - Guitar/Vocals

INTRO
Guitar 1
   E           B5              E           B5
e|-0-0-0-0-0-0---------x-x-x-|-0-0-0-0-0-0---x-x----|
B|-0-0-0-0-0-0---------x-x-x-|-0-0-0-0-0-0---x-x----|
G|-1-1-1-1-1-1---------x-x-x-|-1-1-1-1-1-1---x-x----|
D|-2-2-2-2-2-2-9-9-9-9-x-x-x-|-2-2-2-2-2-2-9-x-x-9--|
A|-2-2-2-2-2-2-9-9-9-9-x-x-x-|-2-2-2-2-2-2-9-x-x-9--|
E|-0-0-0-0-0-0-7-7-7-7-x-x-x-|-0-0-0-0-0-0-7-x-x-7\-|
 
Guitar 2
e|---------------------------|----------------------|
B|---------------5p4h5-------|----------------(5)\0-|
G|-------------4-------------|----------------------|
D|---------------------------|----------------------|
A|---------------------------|----------------------|
E|---------------------------|----------------------|
//              Let Ring

   E         B          A         B           E         B          A         B
e|-0-0-0-0-0-2-2-2-2-2|-0-0-0-0-0-2-2-2-2-2-|-0-0-0-0-0-2-2-2-2-2|-0-0-0-0-0-2-2-2-2-2|
B|-0-0-0-0-0-4-4-4-4-4|-2-2-2-2-2-4-4-4-4-4-|-0-0-0-0-0-4-4-4-4-4|-2-2-2-2-2-4-4-4-4-4|
G|-1-1-1-1-1-4-4-4-4-4|-2-2-2-2-2-4-4-4-4-4-|-1-1-1-1-1-4-4-4-4-4|-2-2-2-2-2-4-4-4-4-4|
D|-2-2-2-2-2-4-4-4-4-4|-2-2-2-2-2-4-4-4-4-4-|-2-2-2-2-2-4-4-4-4-4|-2-2-2-2-2-4-4-4-4-4|
A|-2-2-2-2-2-2-2-2-2-2|-0-0-0-0-0-2-2-2-2-2-|-2-2-2-2-2-2-2-2-2-2|-0-0-0-0-0-2-2-2-2-2|
E|-0-0-0-0-0----------|-0-0-0-0-0-----------|-0-0-0-0-0----------|-0-0-0-0-0----------|

e|--------------------|---------------------|--------------------|--------------------|
B|----------4h5-------|-.-.-----------------|-------------4h5----|-.-.----------------|
G|-/4-4-4-4-----------|-4-4/1\2-------------|-(2)/4-4-4-4--------|-4-4/1\2------------|
D|--------------------|---------------------|--------------------|--------------------|
A|--------------------|---------------------|--------------------|--------------------|
E|--------------------|---------------------|--------------------|--------------------|
Let Ring------------------------------------------------------------------------------
//

BRIDGE
Guitar 1
e|-----------------------------------|
B|-----------------------------------|
G|-----------------------------------|
D|-2-2-2-2-2-2-2-2-2-2-2-2-2-2-------|
A|-2-2-2-2-2-2-2-2-2-2-2-2-2-2-2/9\2-|
E|-0-0-0-0-0-0-0-0-0-0-0-0-0-0-------|
PM   -------------------------

Guitar 2
e|-----------------------------------|
B|-----------------------------------|
G|-----------------------------------|
D|-2-2-2-2-2-2-2-2-2-2-2-2-2-2-2-2-2-|
A|-2-2-2-2-2-2-2-2-2-2-2-2-2-2-2-2-2-|
E|-0-0-0-0-0-0-0-0-0-0-0-0-0-0-0-0-0-|
PM   -------------------------------
//

VERSE
Guitar 1 & 2
   E5              B5               A5              B5
e|--------------------------------|---------------------------------|
B|--------------------------------|---------------------------------|
G|-----------------4-4-4-4-4-4-4-4|-2-2-2-2-2-2-2-2-4-4-4-4-4-4-4-4-|
D|-2-2-2-2-2-2-2-2-4-4-4-4-4-4-4-4|-2-2-2-2-2-2-2-2-4-4-4-4-4-4-4-4-|
A|-2-2-2-2-2-2-2-2-2-2-2-2-2-2-2-2|-0-0-0-0-0-0-0-0-2-2-2-2-2-2-2-2-|
E|-0-0-0-0-0-0-0-0----------------|---------------------------------|
PM   -------------   -------------   -------------   ------------
//
   E5              B5               E5              B5
e|--------------------------------|---------------------------------|
B|--------------------------------|---------------------------------|
G|-----------------4-4-4-4-4-4-4-4|-2-2-2-2-2-2-2-2-4-4-4-4-4-4-4-4-|
D|-2-2-2-2-2-2-2-2-4-4-4-4-4-4-4-4|-2-2-2-2-2-2-2-2-4-4-4-4-4-4-4-4-|
A|-2-2-2-2-2-2-2-2-2-2-2-2-2-2-2-2|-0-0-0-0-0-0-0-0-2-2-2-2-2-2-2-2-|
E|-0-0-0-0-0-0-0-0----------------|---------------------------------|
PM   -------------   -------------   -------------   ------------
//
   E5              B5               E5              B5
e|--------------------------------|---------------------------------|
B|--------------------------------|---------------------------------|
G|-----------------4-4-4-4-4-4-4-4|-2-2-2-2-2-2-2-2-4-4-4-4-4-4-4-4-|
D|-2-2-2-2-2-2-2-2-4-4-4-4-4-4-4-4|-2-2-2-2-2-2-2-2-4-4-4-4-4-4-4-4-|
A|-2-2-2-2-2-2-2-2-2-2-2-2-2-2-2-2|-0-0-0-0-0-0-0-0-2-2-2-2-2-2-2-2-|
E|-0-0-0-0-0-0-0-0----------------|---------------------------------|
PM   -------------   -------------   -------------   ------------
//
   E5              B5               A               B
e|--------------------------------|-0-0-0-0-0-0-0-0-2-2-2-2-2-2-2-2-|
B|--------------------------------|-2-2-2-2-2-2-2-2-4-4-4-4-4-4-4-4-|
G|-----------------4-4-4-4-4-4-4-4|-2-2-2-2-2-2-2-2-4-4-4-4-4-4-4-4-|
D|-2-2-2-2-2-2-2-2-4-4-4-4-4-4-4-4|-2-2-2-2-2-2-2-2-4-4-4-4-4-4-4-4-|
A|-2-2-2-2-2-2-2-2-2-2-2-2-2-2-2-2|-0-0-0-0-0-0-0-0-2-2-2-2-2-2-2-2-|
E|-0-0-0-0-0-0-0-0----------------|-0-0-0-0-0-0-0-0-----------------|
PM   -------------   -------------
//

CHORUS
Guitar 1 & 2
   E         B          A         B           E         B          A         B
e|-0-0-0-0-0-2-2-2-2-2|-0-0-0-0-0-2-2-2-2-2-|-0-0-0-0-0-2-2-2-2-2|-0-0-0-0-0-2-2-2-2-2|
B|-0-0-0-0-0-4-4-4-4-4|-2-2-2-2-2-4-4-4-4-4-|-0-0-0-0-0-4-4-4-4-4|-2-2-2-2-2-4-4-4-4-4|
G|-1-1-1-1-1-4-4-4-4-4|-2-2-2-2-2-4-4-4-4-4-|-1-1-1-1-1-4-4-4-4-4|-2-2-2-2-2-4-4-4-4-4|
D|-2-2-2-2-2-4-4-4-4-4|-2-2-2-2-2-4-4-4-4-4-|-2-2-2-2-2-4-4-4-4-4|-2-2-2-2-2-4-4-4-4-4|
A|-2-2-2-2-2-2-2-2-2-2|-0-0-0-0-0-2-2-2-2-2-|-2-2-2-2-2-2-2-2-2-2|-0-0-0-0-0-2-2-2-2-2|
E|-0-0-0-0-0----------|-0-0-0-0-0-----------|-0-0-0-0-0----------|-0-0-0-0-0----------|
//

BRIDGE
Guitar 1
   E5
e|-----------------------------------|
B|-----------------------------------|
G|-----------------------------------|
D|-2-2-2-2-2-2-2-2-2-2-2-2-2-2-------|
A|-2-2-2-2-2-2-2-2-2-2-2-2-2-2-2/9\2-|
E|-0-0-0-0-0-0-0-0-0-0-0-0-0-0-------|
PM   -------------------------

Guitar 2
   E5
e|-----------------------------------|
B|-----------------------------------|
G|-----------------------------------|
D|-2-2-2-2-2-2-2-2-2-2-2-2-2-2-2-2-2-|
A|-2-2-2-2-2-2-2-2-2-2-2-2-2-2-2-2-2-|
E|-0-0-0-0-0-0-0-0-0-0-0-0-0-0-0-0-0-|
PM   -------------------------------
//
[ Tab from: http://www.guitartabs.cc/tabs/m/misc_unsigned_bands/insomnia_friends_tab_ver_2.html ]
VERSE
Guitar 1 & 2
   E5              B5               A5              B5
e|--------------------------------|---------------------------------|
B|--------------------------------|---------------------------------|
G|-----------------4-4-4-4-4-4-4-4|-2-2-2-2-2-2-2-2-4-4-4-4-4-4-4-4-|
D|-2-2-2-2-2-2-2-2-4-4-4-4-4-4-4-4|-2-2-2-2-2-2-2-2-4-4-4-4-4-4-4-4-|
A|-2-2-2-2-2-2-2-2-2-2-2-2-2-2-2-2|-0-0-0-0-0-0-0-0-2-2-2-2-2-2-2-2-|
E|-0-0-0-0-0-0-0-0----------------|---------------------------------|
PM   -------------   -------------   -------------   ------------
//
   E5              B5               E5              B5
e|--------------------------------|---------------------------------|
B|--------------------------------|---------------------------------|
G|-----------------4-4-4-4-4-4-4-4|-2-2-2-2-2-2-2-2-4-4-4-4-4-4-4-4-|
D|-2-2-2-2-2-2-2-2-4-4-4-4-4-4-4-4|-2-2-2-2-2-2-2-2-4-4-4-4-4-4-4-4-|
A|-2-2-2-2-2-2-2-2-2-2-2-2-2-2-2-2|-0-0-0-0-0-0-0-0-2-2-2-2-2-2-2-2-|
E|-0-0-0-0-0-0-0-0----------------|---------------------------------|
PM   -------------   -------------   -------------   ------------
//
   E5              B5               E5              B5
e|--------------------------------|---------------------------------|
B|--------------------------------|---------------------------------|
G|-----------------4-4-4-4-4-4-4-4|-2-2-2-2-2-2-2-2-4-4-4-4-4-4-4-4-|
D|-2-2-2-2-2-2-2-2-4-4-4-4-4-4-4-4|-2-2-2-2-2-2-2-2-4-4-4-4-4-4-4-4-|
A|-2-2-2-2-2-2-2-2-2-2-2-2-2-2-2-2|-0-0-0-0-0-0-0-0-2-2-2-2-2-2-2-2-|
E|-0-0-0-0-0-0-0-0----------------|---------------------------------|
PM   -------------   -------------   -------------   ------------
//
   E5              B5               A               B
e|--------------------------------|-0-0-0-0-0-0-0-0-2-2-2-2-2-2-2-2-|
B|--------------------------------|-2-2-2-2-2-2-2-2-4-4-4-4-4-4-4-4-|
G|-----------------4-4-4-4-4-4-4-4|-2-2-2-2-2-2-2-2-4-4-4-4-4-4-4-4-|
D|-2-2-2-2-2-2-2-2-4-4-4-4-4-4-4-4|-2-2-2-2-2-2-2-2-4-4-4-4-4-4-4-4-|
A|-2-2-2-2-2-2-2-2-2-2-2-2-2-2-2-2|-0-0-0-0-0-0-0-0-2-2-2-2-2-2-2-2-|
E|-0-0-0-0-0-0-0-0----------------|-0-0-0-0-0-0-0-0-----------------|
PM   -------------   -------------
//

CHORUS
Guitar 1 & 2
   E         B          A         B           E       B            A         B
e|-0-0-0-0-0-2-2-2-2-2|-0-0-0-0-0-2-2-2-2-2-|-0-0-0-0-0-2-2-2-2-2|-0-0-0-0-0-2-2-2-2-2|
B|-0-0-0-0-0-4-4-4-4-4|-2-2-2-2-2-4-4-4-4-4-|-0-0-0-0-0-4-4-4-4-4|-2-2-2-2-2-4-4-4-4-4|
G|-1-1-1-1-1-4-4-4-4-4|-2-2-2-2-2-4-4-4-4-4-|-1-1-1-1-1-4-4-4-4-4|-2-2-2-2-2-4-4-4-4-4|
D|-2-2-2-2-2-4-4-4-4-4|-2-2-2-2-2-4-4-4-4-4-|-2-2-2-2-2-4-4-4-4-4|-2-2-2-2-2-4-4-4-4-4|
A|-2-2-2-2-2-2-2-2-2-2|-0-0-0-0-0-2-2-2-2-2-|-2-2-2-2-2-2-2-2-2-2|-0-0-0-0-0-2-2-2-2-2|
E|-0-0-0-0-0----------|-0-0-0-0-0-----------|-0-0-0-0-0----------|-0-0-0-0-0----------|
//

MIDDLE 8
Guitar 1
   E           B5              E           B5
e|-0-0-0-0-0-0---------x-x-x-|-0-0-0-0-0-0---x-x----|
B|-0-0-0-0-0-0---------x-x-x-|-0-0-0-0-0-0---x-x----|
G|-1-1-1-1-1-1---------x-x-x-|-1-1-1-1-1-1---x-x----|
D|-2-2-2-2-2-2-9-9-9-9-x-x-x-|-2-2-2-2-2-2-9-x-x-9--|
A|-2-2-2-2-2-2-9-9-9-9-x-x-x-|-2-2-2-2-2-2-9-x-x-9--|
E|-0-0-0-0-0-0-7-7-7-7-x-x-x-|-0-0-0-0-0-0-7-x-x-7\-|

Guitar 2
e|---------------------------|----------------------|
B|---------------------------|----------------------|
G|-------------4p2p1h2-------|----------------------|
D|---------------------------|----------------------|
A|---------------------------|----------------------|
E|---------------------------|----------------------|
//              Let Ring

Guitar 1
   E  .  B       .   E  .   B       .   A  .  B       .   A  .  B       .
e|-0--0--2-2-2-2-2-|-0--0---2-2-2-2-2-|-0--0--2-2-2-2-2-|-0--0--2-2-2-2-2-|
B|-0--0--4-4-4-4-4-|-0--0---4-4-4-4-4-|-2--2--4-4-4-4-4-|-2--2--4-4-4-4-4-|
G|-1--1--4-4-4-4-4-|-1--1---4-4-4-4-4-|-2--2--4-4-4-4-4-|-2--2--4-4-4-4-4-|
D|-2--2--4-4-4-4-4-|-2--2---4-4-4-4-4-|-2--2--4-4-4-4-4-|-2--2--4-4-4-4-4-|
A|-2--2--2-2-2-2-2-|-2--2---2-2-2-2-2-|-0--0--2-2-2-2-2-|-0--0--2-2-2-2-2-|
E|-0--0------------|-0--0-------------|-0--0------------|-0--0------------|

Guitar 2
e|-----------------|------------------|-----------------|-----------------|
B|----------4h5----|---------4h5------|-.-.-------------|-.-.-------------|
G|-/4-4-4-4--------|-4-4-4-4----------|-4-4/1\2---------|-4-4/1\2---------|
D|-----------------|------------------|-----------------|-----------------|
A|-----------------|------------------|-----------------|-----------------|
E|-----------------|------------------|-----------------|-----------------|
//

Guitar 1
   E  .  B       .   E  .   B       .   A  .  B       .   A  .  B       .
e|-0--0--2-2-2-2-2-|-0--0---2-2-2-2-2-|-0--0--2-2-2-2-2-|-0--0--2-2-2-2-2-|
B|-0--0--4-4-4-4-4-|-0--0---4-4-4-4-4-|-2--2--4-4-4-4-4-|-2--2--4-4-4-4-4-|
G|-1--1--4-4-4-4-4-|-1--1---4-4-4-4-4-|-2--2--4-4-4-4-4-|-2--2--4-4-4-4-4-|
D|-2--2--4-4-4-4-4-|-2--2---4-4-4-4-4-|-2--2--4-4-4-4-4-|-2--2--4-4-4-4-4-|
A|-2--2--2-2-2-2-2-|-2--2---2-2-2-2-2-|-0--0--2-2-2-2-2-|-0--0--2-2-2-2-2-|
E|-0--0------------|-0--0-------------|-0--0------------|-0--0------------|

Guitar 2
e|-----------------|------------------|-----------------|-----------------|
B|----------4h5----|---------4h5------|-.-.-------------|-.-.-------------|
G|-/4-4-4-4--------|-4-4-4-4----------|-4-4/1\2---------|-4-4/1\2---------|
D|-----------------|------------------|-----------------|-----------------|
A|-----------------|------------------|-----------------|-----------------|
E|-----------------|------------------|-----------------|-----------------|
//

BRIDGE 2
Guitar 1
   B5
e|---------------------------------|
B|---------------------------------|
G|-4-4-4-4-4-4-4-4-4-4-4-4-4-------|
D|-4-4-4-4-4-4-4-4-4-4-4-4-4-------|
A|-2-2-2-2-2-2-2-2-2-2-2-2-2-2/9\2-|
E|---------------------------------|
PM   -----------------------

Guitar 2
   B5
e|---------------------------------|
B|---------------------------------|
G|-4-4-4-4-4-4-4-4-4-4-4-4-4-4-4-4-|
D|-4-4-4-4-4-4-4-4-4-4-4-4-4-4-4-4-|
A|-2-2-2-2-2-2-2-2-2-2-2-2-2-2-2-2-|
E|---------------------------------|
PM   -----------------------------
//

CHORUS
Guitar 1 & 2
   E         B          A         B           E       B            A         B
e|-0-0-0-0-0-2-2-2-2-2|-0-0-0-0-0-2-2-2-2-2-|-0-0-0-0-0-2-2-2-2-2|-0-0-0-0-0-2-2-2-2-2|
B|-0-0-0-0-0-4-4-4-4-4|-2-2-2-2-2-4-4-4-4-4-|-0-0-0-0-0-4-4-4-4-4|-2-2-2-2-2-4-4-4-4-4|
G|-1-1-1-1-1-4-4-4-4-4|-2-2-2-2-2-4-4-4-4-4-|-1-1-1-1-1-4-4-4-4-4|-2-2-2-2-2-4-4-4-4-4|
D|-2-2-2-2-2-4-4-4-4-4|-2-2-2-2-2-4-4-4-4-4-|-2-2-2-2-2-4-4-4-4-4|-2-2-2-2-2-4-4-4-4-4|
A|-2-2-2-2-2-2-2-2-2-2|-0-0-0-0-0-2-2-2-2-2-|-2-2-2-2-2-2-2-2-2-2|-0-0-0-0-0-2-2-2-2-2|
E|-0-0-0-0-0----------|-0-0-0-0-0-----------|-0-0-0-0-0----------|-0-0-0-0-0----------|
//

OUTRO
Guitar 1 & 2
   E         B          E         B          E         B          E         B
e|-0-0-0-0-0-2-2-2-2-2|-0-0-0-0-0-2-2-2-2-2|-0-0-0-0-0-2-2-2-2-2|-0-0-0-0-0-2-2-2-2-2-|
B|-2-2-2-2-2-4-4-4-4-4|-2-2-2-2-2-4-4-4-4-4|-2-2-2-2-2-4-4-4-4-4|-2-2-2-2-2-4-4-4-4-4-|
G|-2-2-2-2-2-4-4-4-4-4|-2-2-2-2-2-4-4-4-4-4|-2-2-2-2-2-4-4-4-4-4|-2-2-2-2-2-4-4-4-4-4-|
D|-2-2-2-2-2-4-4-4-4-4|-2-2-2-2-2-4-4-4-4-4|-2-2-2-2-2-4-4-4-4-4|-2-2-2-2-2-4-4-4-4-4-|
A|-0-0-0-0-0-2-2-2-2-2|-0-0-0-0-0-2-2-2-2-2|-0-0-0-0-0-2-2-2-2-2|-0-0-0-0-0-2-2-2-2-2-|
E|-0-0-0-0-0----------|-0-0-0-0-0----------|-0-0-0-0-0----------|-0-0-0-0-0-----------|
//

   E
e|-0---------------|----------------|
B|-1---------------|----------------|
G|-2---------------|----------------|
D|-2---------------|----------------|
A|-0---------------|----------------|
E|-0-------------0-|(0)-------------|
Let Ring

e|-----------------|----------------|
B|---------4--5~---|(5)-------------|
G|------4----------|----------------|
D|-----------------|----------------|
A|-----------------|----------------|
E|-----------------|----------------|


| /  slide up
| \  slide down
| h  hammer-on
| p  pull-off
| ~  vibrato
| +  harmonic
| x  Mute note
| PM Palm Mute
| .  Staccato
========================================================================================
Comments