Misc Unsigned Bands - Insomnia - Friends Chords & Tabs

 

Insomnia - Friends Chords & Tabs

Misc Unsigned Bands Chords & Tabs

Version: 1 Type: Tab 0 ratings
1 star 2 stars 3 stars 4 stars 5 stars
comments

Insomnia - Friends Tab

   
-------------------------------------------------------------------------------
			     FRIENDS - Insomnia
-------------------------------------------------------------------------------
Tabbed by: Chris Salway
Email: randy_rabbit89@hotmail.com

Tuning: Standard EADGBe
Intro
e|---------------------------------------------------------------------------|
B|---------------------------------------------------------------------------|
G|---------------------------------------------------------------------------|
D|-2-2-2-2-9-9-9---------2-2-2-2-9-9-9---------------------------------------|
A|-2-2-2-2-9-9-9---------2-2-2-2-9-9-9---------------------------------------|
E|-0-0-0-0-7-7-7---------0-0-0-0-7-7-7\--------------------------------------|

Intro Pt 2
e|---------------------------------------------------------------------------|
B|---------------------------------------------------------------------------|
G|---------4-4-4-4-2-2-2-2-4-4-4-4---------4-4-4-4-2-2-2-2-4-4-4-4-----------|
D|-2-2-2-2-4-4-4-4-2-2-2-2-4-4-4-4-2-2-2-2-4-4-4-4-2-2-2-2-4-4-4-4-----------|
A|-2-2-2-2-2-2-2-2-0-0-0-0-2-2-2-2-2-2-2-2-2-2-2-2-0-0-0-0-2-2-2-2-----------|
E|-0-0-0-0-------------------------0-0-0-0-----------------------------------|

Intro Lead
e|---------------------------------------------------------------------------|
B|---------4-5------------------4-2------------------------------------------|
G|-4-4-4-4-----4-4-1-2--4-4-4-4-----4-4-1-2----------------------------------|
D|---------------------------------------------------------------------------|
A|---------------------------------------------------------------------------|
E|---------------------------------------------------------------------------|

Bridge
e|---------------------------------------------------------------------------|
B|---------------------------------------------------------------------------|
G|---------------------------------------------------------------------------|
D|-2-2-2-2-2-2-2-2-----------------------------------------------------------|
A|-2-2-2-2-2-2-2-2-----------------------------------------------------------|
E|-0-0-0-0-0-0-0-0-----------------------------------------------------------|
PM----------------

Verse
e|---------------------------------------------------------------------------|
B|---------------------------------------------------------------------------|
G|----------------4--4-4-4-4-4-4-4-2--2-2-2-2-2-4--4-4-4-4-4-4-4-------------|
D|-2--2-2-2-2-2-2-4--4-4-4-4-4-4-4-2--2-2-2-2-2-4--4-4-4-4-4-4-4-------------|
A|-2--2-2-2-2-2-2-2--2-2-2-2-2-2-2-0--0-0-0-0-0-2--2-2-2-2-2-2-2-------------|
E|-0--0-0-0-0-0-0------------------------------------------------------------|
PM    -----------    -------------    ---------    ---------------
[ Tab from: http://www.guitartabs.cc/tabs/m/misc_unsigned_bands/insomnia_friends_tab.html ]
Chorus
e|---------------------------------------------------------------------------|
B|---------------------------------------------------------------------------|
G|-----------------4-4-4-4-4-4-4-4-2-2-2-2-2-2-2-2-4-4-4-4-4-4-4-4-----------|
D|-2-2-2-2-2-2-2-2-4-4-4-4-4-4-4-4-2-2-2-2-2-2-2-2-4-4-4-4-4-4-4-4-----------|
A|-2-2-2-2-2-2-2-2-2-2-2-2-2-2-2-2-0-0-0-0-0-0-0-0-2-2-2-2-2-2-2-2-----------|
E|-0-0-0-0-0-0-0-0-----------------------------------------------------------|

Middle 8
e|---------------------------------------------------------------------------|
B|---------------------------------------------------------------------------|
G|---------------------------------------------------------------------------|
D|-2-2-2-2-9------2-2-2-2-9--------------------------------------------------|
A|-2-2-2-2-9------2-2-2-2-9--------------------------------------------------|
E|-0-0-0-0-7------0-0-0-0-7--------------------------------------------------|

Middle 8 Pt 2
e|---------------------------------------------------------------------------|
B|---------------------------------------------------------------------------|
G|---------4-4-4-4---------4-4-4-4-2-2-2-2-4-4-4-4-2-2-2-2-4-4-4-4-----------|
D|-2-2-2-2-4-4-4-4-2-2-2-2-4-4-4-4-2-2-2-2-4-4-4-4-2-2-2-2-4-4-4-4-----------|
A|-2-2-2-2-2-2-2-2-2-2-2-2-2-2-2-2-0-0-0-0-2-2-2-2-0-0-0-0-2-2-2-2-----------|
E|-0-0-0-0---------0-0-0-0---------------------------------------------------|

Middle 8 Lead
e|---------------------------------------------------------------------------|
B|---------4-5--------- 4-5--------------------------------------------------|
G|-4-4-4-4------4-4-4-4------4-4-4-4-1-2-4-4-4-4-1-2-------------------------|
D|---------------------------------------------------------------------------|
A|---------------------------------------------------------------------------|
E|---------------------------------------------------------------------------|

Outro
e|---------------------------------------------------------------------------|
B|---------------------------------------------------------------------------|
G|-2-2-2-2-4-4-4-4-2-2-2-2-4-4-4-4-2-2-2-2-4-4-4-4-2-2-2-2-4-4-4-4-2---------|
D|-2-2-2-2-4-4-4-4-2-2-2-2-4-4-4-4-2-2-2-2-4-4-4-4-2-2-2-2-4-4-4-4-2---------|
A|-0-0-0-0-2-2-2-2-0-0-0-0-2-2-2-2-0-0-0-0-2-2-2-2-0-0-0-0-2-2-2-2-0---------|
E|---------------------------------------------------------------------------|

Intro
Intro Pt 2 + Intro Lead
Bridge
Verse x 2
Chorus x 2
Bridge
Verse x 2
Chorus x 2
Middle 8
Middle 8 Pt 2 + Middle 8 Lead x 2
Chorus x 2
Outro


| /  slide up
| \  slide down
| h  hammer-on
| p  pull-off
| ~  vibrato
| +  harmonic
| x  Mute note
| PM Palm Mute
===============================================================================
Comments