Misc Unsigned Bands - Insomnia - Chicken House Chords & Tabs

 

Insomnia - Chicken House Chords & Tabs

Misc Unsigned Bands Chords & Tabs

Version: 1 Type: Tab 0 ratings
1 star 2 stars 3 stars 4 stars 5 stars
comments

Insomnia - Chicken House Tab

   
-------------------------------------------------------------------------------
			     CHICKEN HOUSE - Insomnia
-------------------------------------------------------------------------------
Tabbed by: Chris Salway
Email:randy_rabbit89@hotmail.com

Tuning: Standard EADGBe

Insomnia are
Chris Salway (guitar/vocals)
Rose Grigg (guitar/vocals)
Sam Chamberlain (drums)
Steen Jinks (bass)
www.insomnia.co.uk.tt

Guitar parts written by Phil Innes/Rose Grigg/Chris Salway

Intro
e|---------------------------------------------------------------------------|
B|---------------------------------------------------------------------------|
G|---------------------------------------------------------------------------|
D|--5-7-5-7-5-7-5-7-5-2------------------------------------------------------|
A|---------------------------------------------------------------------------|
E|---------------------------------------------------------------------------|

Intro Pt 2
e|---------------------------------------------------------------------------|
B|---------------------------------------------------------------------------|
G|---------------------------------------------------------------------------|
D|-2-2-2~--2-2-2-2-2-2~--2--2--2--2--2-2-2-2-2-2-2-2-------------------------|
A|-2-2-2~--2-2-2-2-2-2~--2--2--2--2--2-2-2-2-2-2-2-2-------------------------|
E|-0-0-0~--0-0-0-0-0-0~--0--0--0--0--0-0-0-0-0-0-0-0-------------------------|

Intro Pt 3
e|---------------------------------------------------------------------------|
B|---------------------------------------------------------------------------|
G|---------------------------------------------------------------------------|
D|-2-2-2-2-5-5-7-7-7-7-5-5-2-2-2-2-5-5-7~------------------------------------|
A|-2-2-2-2-5-5-7-7-7-7-5-5-2-2-2-2-5-5-7~------------------------------------|
E|-0-0-0-0-3-3-5-5-5-5-3-3-0-0-0-0-3-3-5~------------------------------------|

Verse
e|---------------------------------------------------------------------------|
B|---------------------------------------------------------------------------|
G|---------------------------------------------------------------------------|
D|-2-2-2-2-5-5-7-7-7-7-5-5-2-2-2-2-5-5-7-7-7-7-5-5---------------------------|
A|-2-2-2-2-5-5-7-7-7-7-5-5-2-2-2-2-5-5-7-7-7-7-5-5---------------------------|
E|-0-0-0-0-3-3-5-5-5-5-3-3-0-0-0-0-3-3-5-5-5-5-3-3---------------------------|

Bridge
e|---------------------------------------------------------------------------|
B|---------------------------------------------------------------------------|
G|-------------7-7-10-9------------------------------------------------------|
D|-7-7-7-9-9-9-7-7-10-9------------------------------------------------------|
A|-7-7-7-9-9-9-5-5-8--7------------------------------------------------------|
E|-5-5-5-7-7-7---------------------------------------------------------------|

Chorus
e|---------------------------------------------------------------------------|
B|---------------------------------------------------------------------------|
G|---------------------------------------------------------------------------|
D|-5-5-5-7-7-7-5-5-5-2-2-2-2-2-2-2-2-2-2-2-2-2-2-2-2-2-----------------------|
A|-5-5-5-7-7-7-5-5-5-2-2-2-2-2-2-2-2-2-2-2-2-2-2-2-2-2-----------------------|
E|-3-3-3-5-5-5-3-3-3-0-0-0-0-3-0-3-0-0-0-3-0-3-0-0-0-0-----------------------|
[ Tab from: http://www.guitartabs.cc/tabs/m/misc_unsigned_bands/insomnia_chicken_house_tab.html ]
Verse Pt 2
e|---------------------------------------------------------------------------|
B|---------------------------------------------------------------------------|
G|---------------------------------------------------------------------------|
D|-2-2-2-2-5-5-7-7-7-7-5-5-2-2-2-2-5-5-7-7-7-7-5-5---------------------------|
A|-2-2-2-2-5-5-7-7-7-7-5-5-2-2-2-2-5-5-7-7-7-7-5-5---------------------------|
E|-0-0-0-0-3-3-5-5-5-5-3-3-0-0-0-0-3-3-5-5-5-5-3-3---------------------------|
PM------------------------------------------------

Verse Pt 3
e|---------------------------------------------------------------------------|
B|---------------------------------------------------------------------------|
G|---------------------------------------------------------------------------|
D|-2-2-2-2-5-5-7-7-7-7-5-5-2-2-2-2-5-5-7~------------------------------------|
A|-2-2-2-2-5-5-7-7-7-7-5-5-2-2-2-2-5-5-7~------------------------------------|
E|-0-0-0-0-3-3-5-5-5-5-3-3-0-0-0-0-3-3-5~------------------------------------|

Middle 8 
e|---------------------------------------------------------------------------|
B|---------------------------------------------------------------------------|
G|---------------------------------------------------------------------------|
D|-9-9-9-9-9-9-9-9-7-7-7-7-7-7-7-7-2--2-5-2-2-5------------------------------|
A|-9-9-9-9-9-9-9-9-7-7-7-7-7-7-7-7-2--2-5-2-2-5------------------------------|
E|-7-7-7-7-7-7-7-7-5-5-5-5-5-5-5-5-0--0-3-0-0-3------------------------------|

Middle 8 Lead
e|-7-7-7-7-7-7-9-7-5-5-5-5-5-5-7-5-0-0-3-3-0-0-3-3---------------------------|
B|-7-7-7-7-7-7-9-7-5-5-5-5-5-5-7-5-0-0-3---0-0-3-----------------------------|
G|---------------------------------------------------------------------------|
D|---------------------------------------------------------------------------|
A|---------------------------------------------------------------------------|
E|---------------------------------------------------------------------------|

Chorus Lead
e|---------------------------------------------------------------------------|
B|-8-8-8-10-(12)-(10)-5-8-5-8-5-5-5-5-8-5-8-5-5-5----------------------------|
G|---------------------------------------------------------------------------|
D|---------------------------------------------------------------------------|
A|---------------------------------------------------------------------------|
E|---------------------------------------------------------------------------|

e|---------------------------------------------------------------------------|
B|---------------------------------------------------------------------------|
G|---------------------------------------------------------------------------|
D|-2-------------------------------------------------------------------------|
A|-2-------------------------------------------------------------------------|
E|-0-------------------------------------------------------------------------|

Intro x 4
Intro Pt 2
Intro Pt 3
Verse x 4
Bridge
Chorus x 2
Bridge
Verse Pt 2 x 3
Verse Pt 3
Middle 8 + Middle 8 Lead
Chorus x 2
Chorus x 2 + Chorus Lead x 2
Chorus x 4 + Improvived Solo G Pentatonic Scale
Outro

| /  slide up
| \  slide down
| h  hammer-on
| p  pull-off
| ~  vibrato
| +  harmonic
| x  Mute note
| PM Palm Mute
| 10 (12) (10) - Bend and return 10th Fret
===============================================================================
Comments