Misc Unsigned Bands - Induction To Life - Holes Chords & Tabs

 

Induction To Life - Holes Chords & Tabs

Misc Unsigned Bands Chords & Tabs

Version: 1 Type: Bass Tab 0 ratings
1 star 2 stars 3 stars 4 stars 5 stars
comments

Induction To Life - Holes Bass Tab

right it goes something like that most people wont know this one its just a small venue
band but they are becoming sucsessfull they WILL be big 1 day! im lucky enough to have
a demo tape of theres with this and a few others on it! so i tabbed this for any1 who
has ever been to 1 of there gigs!! 
have fun trying this brilliant tune!!!!

verse
[ Tab from: http://www.guitartabs.cc/tabs/m/misc_unsigned_bands/induction_to_life_holes_btab.html ]
e--33--33--443---------------------------------------------33|
a--------------77--77--77--778-------------------------------|
d------------------------------10-10-10-10-11----------------|
g---------------------------------------------12-10-7-5-3-0--|

Chorus


e---3333555566664444---------------------------------------------|
a--------------------------3333666644445555----------------------|
d------------------------------------------99--99--990-----------|
g------------------------------------------------------9-7-5-2-0-|
Comments