Misc Unsigned Bands - In Randall We Trust - The Chord Song Chords & Tabs

 

In Randall We Trust - The Chord Song Chords & Tabs

Misc Unsigned Bands Chords & Tabs

Version: 1 Type: Tab 0 ratings
1 star 2 stars 3 stars 4 stars 5 stars
comments

In Randall We Trust - The Chord Song Tab

   
The Chord Song - In Randall We Trust
-------------------------------------------------------------------------------
Tabbed by:.Master Diablo
Email: diablo__dlious@hotmail.com

This is a new tab from a new band called "In Randall We Trust" called "the chord song", 
kicks ass...has a nice groove feel.....check it out..

Tuning: EADGBE

Play the song in the blues setting of your guitar with the reverb on half way
The song has a slow melodic feel... so don't rush it

Figure 1:

e|----------------------------------------------------------------------------|
B|----------------------------------------------------------------------------|
G|----------------------------------------------------------------------------|
D|----------------------------------------------------------------------------|
A|-----4---4-4---4---4-4------------3---3-3---3---3--3------------------------|
E|---5--5---5-5---5---5-----------4--4---4-4---4----4-------------------------|

e|---------------------------------------------------------------------------|
B|---------------------------------------------------------------------------|
G|---------------------------------------------------------------------------|
D|---------------------------------------------------------------------------|
A|-----1---1-1---1---1-1------------0---0-0---0---0-0------------------------|
E|---2--2---2-2---2---2-----------1--1---1-1---1---1-------------------------|

Figure 2:

e|---------------------------------------------------------------------------|
B|---------------------------------------------------------------------------|
G|---------------------------------------------------------------------------|
D|---------------------------------------------------------------------------|
A|-----4---4-4---4---4-4------------3---3-3---3---3-3------------------------|
E|---5--5---5-5---5---5-----------4--4---4-4---4---4-------------------------|

e|---------------------------------------------------------------------------|
B|---------------------------------------------------------------------------|
G|---------------------------------------------------------------------------|
D|---------------------------------------------------------------------------|
A|-----1---1-1---1---1-1------------2---2-2---2---2-2------------------------|
E|---2--2---2-2---2---2-----------3--3---3-3---3---3-------------------------|

Then go back to figure 1 and repeat four times, but on the forth time  stop on the forth 
and let it ring.......now chords
[ Tab from: http://www.guitartabs.cc/tabs/m/misc_unsigned_bands/in_randall_we_trust_the_chord_song_tab.html ]
Figure 3:
x2
e|-x----------------x----------------x----------------0-----------------------|
B|-0----------------0----------------0----------------0-----------------------|
G|-1----------------0----------------0----------------2-----------------------|
D|-2----------------2----------------0----------------2-----------------------|
A|-2----------------2----------------2----------------0-----------------------|
E|-0----------------0----------------3----------------x-----------------------|

e|-x----------------x----------------0----------------0----------------------|
B|-0----------------0----------------1----------------0----------------------|
G|-1----------------0----------------2----------------2----------------------|
D|-2----------------2----------------2----------------2----------------------|
A|-2----------------2----------------0----------------0----------------------|
E|-0----------------0----------------x----------------x----------------------|

Go Back to Figure 1 and repeat Figure 1 once...then Figure 2 once....then Figure 1 four 
with the cut off note being the forth 1.

 Then go to figure 3

solo
e|----------------------------------------------------------------------------|
B|----------------------------------------------------------------------------|
G|----------------------------------------------------------------------------|
D|-------5---------------------------5-------------------------5--------------|
A|--5h7h8-8-7-5-7~~~~-5-5-----5h7h8-8-7-5-7~~~~-5-----5h7h8--8-7-5-7~~~~-5-9--|
E|-----------------------------------------------6----------------------------|

 Repeat this lick 8 times clean....then 6 more with distortion
e|---------------------------------------------------------------------------|
B|---------------------------------------------------------------------------|
G|---------------------------------------------------------------------------|
D|------5-8-7----------------------------------------------------------------|
A|--8--5-----5---------------------------------------------------------------|
E|---------------------------------------------------------------------------|

end with this
e|----------------------------------------------------------------------------|
B|----------------------------------------------------------------------------|
G|----------------------------------------------------------------------------|
D|----------------------------------------------------------------------------|
A|--8~~~~-7~~~~-5-5-----------------------------------------------------------|
E|----------------------------------------------------------------------------|


Breakdown:
Figure 1 x 1
Figure 2 x 1
Figure 1 x 4
Figure 3 x 2
Figure 1 x 1
Figure 2 x 1
Figure 1 x 4
Figure 1 x 2
Figure 3 x 2
Solo ( flick your switch to the metal setting after the first 8 repetitions to finish the song)

If ya get the timing right it sounds really cool......good luck....live long and rock on


| /  slide up
| \  slide down
| h  hammer-on
| p  pull-off
| ~  vibrato
| +  harmonic
| x  Mute note
=============================================================================
Comments