Misc Unsigned Bands - In A Blaze Of Glory - My Healthy Habit Chords & Tabs

 

In A Blaze Of Glory - My Healthy Habit Chords & Tabs

Misc Unsigned Bands Chords & Tabs

Version: 1 Type: Tab

In A Blaze Of Glory - My Healthy Habit Tab

Standard tuning

Rhythm Guitar

 ------------------------------------------------|
 ------------------------------------------------|
 ------------------------------------------------|
 ------------------------------------------------|
 ----------7---------8----------5h4p5---------5--|
 -5-5-55555-5-5-55555--3-3-33333-----2-2-22222---|
PM. . ..... . . .....  . . .....     . . .....
Thats pretty much it for the entire song certain small variations


Lead
[ Tab from: http://www.guitartabs.cc/tabs/m/misc_unsigned_bands/in_a_blaze_of_glory_my_healthy_habit_tab.html ]
 --------------------------------------------------------|
 --------------------------------------------------------|
 --------------------12~---------------------------------|
 -12~----13~---10~---------------------------------------|
 --------------------------------------------------------|
 --------------------------------------------------------|

VARIATION OF LEAD

------------------------------------------------------|
------------------------------------------------------|
-------------12---------------------------------------|
---12-13--10------------------------------------------|
-00--0--00--0-----------------------------------------|
------------------------------------------------------|