Misc Unsigned Bands - Hysteria - Never Gunna Grow Up Chords & Tabs

 

Hysteria - Never Gunna Grow Up Chords & Tabs

Misc Unsigned Bands Chords & Tabs

Version: 1 Type: Tab 0 ratings
1 star 2 stars 3 stars 4 stars 5 stars
comments

Hysteria - Never Gunna Grow Up Tab

Intro

e|------------------------------------------------------------------|
B|------------------------------------------------------------------|
G|------------------------------------------------------------------|
D|-------------4-4--------------6-6-6-------------------------------|   x3
A|---6-6-6-----2-2---0--4-4-----4-4-4-0-----------------------------|
E|---4-4-4--0-----------2-2--0--------------------------------------|
e|------------------------------------------------------------------|
B|------------------------------------------------------------------|
G|-----------------4-4----------------------------------------------|
D|-----------------2-2--0-------------------------------------------|   x1
A|---6-6-6--2-2-2----------4-4-4------------------------------------|
E|---4-4-4--0-0-0----------2-2-2------------------------------------|
Chorus

e|---------------------------------|
B|---------------------------------|
G|---------------------------------|
D|---22222222--55555555--77777777--|   x4
A|---22222222--55555555--77777777--|
E|---00000000--33333333--55555555--|
Bridge

e|------------------------------------------------------------------|
B|------------------------------------------------------------------|
G|------------------------------------------------------------------|
D|-------------4-4--------------6-6-6-------------------------------|   x1
A|---6-6-6-----2-2---0--4-4-----4-4-4-0-----------------------------|
E|---4-4-4--0-----------2-2--0--------------------------------------|
e|------------------------------------------------------------------|
B|------------------------------------------------------------------|
G|-----------------4-4----------------------------------------------|
D|-----------------2-2--0-------------------------------------------|   x1
A|---6-6-6--2-2-2----------4-4-4------------------------------------|
E|---4-4-4--0-0-0----------2-2-2------------------------------------|

Verse

e|-------------------------------------------------------------------|
B|-------------------------------------------------------------------|
G|-------------------------------------------------------------------|
D|---7-7-7-77-77-7-7--9-9-9-99-99-9-9--12-12-12-1212-1212-12-12------|
A|---7-7-7-77-77-7-7--9-9-9-99-99-9-9--12-12-12-1212-1212-12-12------|
E|---5-5-5-55-55-5-5--7-7-7-77-77-7-7--10-10-10-1010-1010-10-10------|
e|-------------------------------------------------------------------|
B|-------------------------------------------------------------------|
G|-------------------------------------------------------------------|
D|---12-12-12-1212-1212-12-12----------------------------------------|   x2
A|---12-12-12-1212-1212-12-12----------------------------------------|
E|---10-10-10-1010-1010-10-10----------------------------------------|
Chorus
[ Tab from: http://www.guitartabs.cc/tabs/m/misc_unsigned_bands/hysteria_never_gunna_grow_up_tab.html ]
e|---------------------------------|
B|---------------------------------|
G|---------------------------------|
D|---22222222--55555555--77777777--|   x4
A|---22222222--55555555--77777777--|
E|---00000000--33333333--55555555--|
Solo X2

e|-------------------------------------------------------------------------|
B|-------------------------------------------------------------------------|
G|-------------------------------------------------------------------------|
D|---------9--------------------9--------------------9-------------------9-|
A|7-10-9-10---10-9-10----10-9-10---10-9-10----10-9-10---10-9-10---10-9-10--|
E|--------------------12-------------------10-------------------9----------|
Bridge

e|------------------------------------------------------------------|
B|------------------------------------------------------------------|
G|------------------------------------------------------------------|
D|-------------4-4--------------6-6-6-------------------------------|   x1
A|---6-6-6-----2-2---0--4-4-----4-4-4-0-----------------------------|
E|---4-4-4--0-----------2-2--0--------------------------------------|
e|------------------------------------------------------------------|
B|------------------------------------------------------------------|
G|-----------------4-4----------------------------------------------|
D|-----------------2-2--0-------------------------------------------|   x1
A|---6-6-6--2-2-2----------4-4-4------------------------------------|
E|---4-4-4--0-0-0----------2-2-2------------------------------------|

Chorus

e|---------------------------------|
B|---------------------------------|
G|---------------------------------|
D|---22222222--55555555--77777777--|   x4
A|---22222222--55555555--77777777--|
E|---00000000--33333333--55555555--|

Verse

e|-------------------------------------------------------------------|
B|-------------------------------------------------------------------|
G|-------------------------------------------------------------------|
D|---7-7-7-77-77-7-7--9-9-9-99-99-9-9--12-12-12-1212-1212-12-12------|
A|---7-7-7-77-77-7-7--9-9-9-99-99-9-9--12-12-12-1212-1212-12-12------|
E|---5-5-5-55-55-5-5--7-7-7-77-77-7-7--10-10-10-1010-1010-10-10------|
e|-------------------------------------------------------------------|
B|-------------------------------------------------------------------|
G|-------------------------------------------------------------------|
D|---12-12-12-1212-1212-12-12----------------------------------------|   x2
A|---12-12-12-1212-1212-12-12----------------------------------------|
E|---10-10-10-1010-1010-10-10----------------------------------------|

 Yo people these are my band tabs we have just come together and as you can c we r cold HYSTERIA........

VaLi G, TaYlOr, JaMeS Mc, DaVe & ChRiS                                                   
                         Cheeeeeeers
Comments