Misc Unsigned Bands - Hopeless - Confused Chords & Tabs

 

Hopeless - Confused Chords & Tabs

Misc Unsigned Bands Chords & Tabs

Version: 1 Type: Tab 0 ratings
1 star 2 stars 3 stars 4 stars 5 stars
comments

Hopeless - Confused Tab

                  URL to the official page, the country etc
Hey this is my band's first tab and song. The song name if you can't read right
is Confused. My name is Casey im lead guitarist and lead vocals, my friend Jimmy
is back up guitarist and backup vocals, my friend Sean is our bassist, and we're
looking for a good drummer with experience from chicago and in his 13's or 12's.
Hope you like our tab.

This is the first part of the intro, its played with heavy distortion, only lead
guitar plays it twice and at the end of the second time pick slide.

e----------------------------------------------------
B----------------------------------------------------
G----------------------------------------------------
D----7-------5-------3-------7-------9--------11-----
A---7--7---5---5---3---3---7---7---9---9---11----11--
E-5------3-------1-------5-------7-------9-----------
pm...................................................

This is the second part of the intro, its played with heavy distortion, both
guitars play it once.
e----------------------------------------------------------------------
B----------------------------------------------------------------------
G----------------------------------------------------------------------
D-7-7-7-7-x-x-5-x-x-3-x-x-7-7-7-7-x-x-9-x-x-11-11-11-11-9-11-11-11-11--
A-7-7-7-7-x-x-5-x-x-3-x-x-7-7-7-7-x-x-9-x-x-11-11-11-11-9-11-11-11-11--
E-5-5-5-5-x-x-3-x-x-1-x-x-5-5-5-5-x-x-7-x-x--9--9--9--9-7--9--9--9--9--

This is the verse, its played with heavy distortion, both guitars play it 4 times.
e--------------------------------------------------
B--------------------------------------------------
G-6-6-6-6-x-x-8-8-8-8-x-x--------------------------
D-6-6-6-6-x-x-8-8-8-8-x-x-8-8-8-8-x-x-6-6-6-6-x-x--
A-4-4-4-4-x-x-6-6-6-6-x-x-8-8-8-8-x-x-6-6-6-6-x-x--
E-------------------------6-6-6-6-x-x-4-4-4-4-x-x--
[ Tab from: http://www.guitartabs.cc/tabs/m/misc_unsigned_bands/hopeless_confused_tab.html ]
This is the chorus, its played with heavy distortion, both guitars play it 3 times.
e----------------------------------------------------------
B----------------------------------------------------------
G-7-7-7-7-7-x-x---------------5-5-5-5-5-x-x----------------
D-7-7-7-7-7-x-x-7-7-7-7-7-x-x-5-5-5-5-5-x-x-5-5-5-5-5-x-x--
A-5-5-5-5-5-x-x-7-7-7-7-7-x-x-3-3-3-3-3-x-x-5-5-5-5-5-x-x--
E---------------5-5-5-5-5-x-x---------------3-3-3-3-3-x-x--

This is the bridge, its played with heavy distortion, back up guitar plays it 4 times.
e----------------------------------
B----------------------------------
G----------------------------------
D-3-3-x-x-4-4-x-x-5-5-x-x-6-6-x-x--
A-3-3-x-x-4-4-x-x-5-5-x-x-6-6-x-x--
E-1-1-x-x-2-2-x-x-3-3-x-x-4-4-x-x--

This is the solo, its played with heavy distortion, lead guitar plays it.
e-8------------------x-x-x-x-11-------------------------x-x-x-x-16--------------
B---6-7-8-7-6-6-6-8b-x-x-x-x----9-10-11-10-11-9-9-9-10b-x-x-x-x----14-15-16-15--
G--------------------x-x-x-x----------------------------x-x-x-x-----------------
D--------------------x-x-x-x----------------------------x-x-x-x-----------------
A--------------------x-x-x-x----------------------------x-x-x-x-----------------
E--------------------x-x-x-x----------------------------x-x-x-x-----------------

e----------------
B-14-14-14-13b/--
G----------------
D----------------
A----------------
E----------------

While lead guitar is playing the solo back up guitar is playing this.....

e----------------------------------
B----------------------------------
G----------------------------------
D-3-3-3-3-4-4-2-2-5-5-5-5-6-6-6-6--
A-3-3-3-3-4-4-2-2-5-5-5-5-6-6-6-6--
E-1-1-1-1-2-2-2-2-3-3-3-3-4-4-4-4--
pm.................................

Order:
1st part of intro x2
2nd part of intro x1
verse x4
chorus x3
verse x4
chorus x3
bridge x4
solo x1 w/ back up guitar x4
chorus x3
1st part of intro x2
Comments