Misc Unsigned Bands - Hopeless - Confused Chords & Tabs

 

Hopeless - Confused Chords & Tabs

Misc Unsigned Bands Chords & Tabs

Version: 1 Type: Bass Tab 0 ratings
1 star 2 stars 3 stars 4 stars 5 stars
comments

Hopeless - Confused Bass Tab

                   URL to the official page, the country etc.        
After the first part of the guitar intro. Play this second part of intro once
G--------------------------------------------------------------
D--------------------------------------------------------------
A--------------------------------------------------------------
E-5-5-5-5-x-x-3-x-x-1-x-x-5-5-5-5-x-x-7-x-x-9-9-9-9-7-9-9-9-9--

This is the verse, play it 4 times.
G--------------------------------------------------
D--------------------------------------------------
A-4-4-4-4-x-x-6-6-6-6-x-x--------------------------
E-------------------------6-6-6-6-x-x-4-4-4-4-x-x--
[ Tab from: http://www.guitartabs.cc/tabs/m/misc_unsigned_bands/hopeless_confused_btab.html ]
This is the verse, play it 3 times.
G----------------------------------------------------------
D----------------------------------------------------------
A-5-5-5-5-5-x-x---------------3-3-3-3-3-x-x----------------
E---------------5-5-5-5-5-x-x---------------3-3-3-3-3-x-x--

This is the bridge, play it 4 times.
G----------------------------------
D----------------------------------
A----------------------------------
E-1-1-x-x-2-2-x-x-3-3-x-x-4-4-x-x--

During the solo play this 4 times.
G----------------------------------
D----------------------------------
A----------------------------------
E-1-1-1-1-2-2-2-2-3-3-3-3-4-4-4-4--

Order:
Guitar 1st part of intro
2nd part of intro x1
verse x4
chorus x3
verse x4
chorus x3
bridge x4
while lead guitar is playing solo x4
Comments