Misc Unsigned Bands - Holy Knights - Under The Light Of The Moon Chords & Tabs

 

Holy Knights - Under The Light Of The Moon Chords & Tabs

Misc Unsigned Bands Chords & Tabs

Version: 1 Type: Tab 0 ratings
1 star 2 stars 3 stars 4 stars 5 stars
comments

Holy Knights - Under The Light Of The Moon Tab

   
Holy Kinghts-Under The Light Of The Moon
----------------------------------------


e|-----------------|
B|-----------------|
G|-----------------|
D|-9-9-9-99-7-7-4--|
A|-7-7-7-77-5-5-2--|
E|-----------------|


e|--------------------------------------------------------------------------|
B|--------------------------------------------------------------------------|
G|--------------------------------------------------------------------------|
D|--------4-7-5-4-5---------4-7-5-4-5-------4-5-4---------------------------|
A|-7-777-------------7-777------------5-555-------7-5----------9-10-9-7-----|
E|-------------------------------------------------------7-777----------10--|
     ...               ...              ...                ...


e|--------------------------------------|
B|--------------------------------------|
G|--------------------------------------|
D|-9-------7--4--5-7--9-------7-----5---|
A|-7-777-7-5--2--3-5--7-777-7-5--7--3-5-|
E|-------------------------------5----3-|
     ... .              ... .



e|-----------------------------------------|
B|-----------------------------------------|
G|-----------------------------------------|
D|-9--5---7--4h5p4-----9--12-7-5--4h5p4----|
A|-7--3-5-5--------5---7--10-5-3--------5--|
E|------3----------------------------------|

[ Tab from: http://www.guitartabs.cc/tabs/m/misc_unsigned_bands/holy_knights_under_the_light_of_the_moon_tab.html ]
Chorus:
e|------------------------------------------------------|
B|------------------------------------------------------|
G|------------------------------------------------------|
D|-5-5-55---5-3-------6---5-5-55---5-3-------6---5-5-55-|
A|-3-3-33-3-3-1-3-4-3-4-6-3-3-33-3-3-1-3-4-3-4-6-3-3-33-|
E|--------1---------1---4--------1---------1---4--------|



solo rhytm:

e|---------------------------------------|
B|---------------------------------------|
G|---------------------------------------|
D|--9-----------7------------5-----------|
A|--7-77777..---5-55555..----3-33333..---|
E|---------------------------------------|
      .....       .....        .....



e|------------------------------------------------------|
B|------------------------------------------------------|
G|------------------------------------------------------|
D|--9-----------7------------5----------9----------7--4-|
A|--7-77777..---5-55555..----3-33333..--7-77777..--5--2-|
E|------------------------------------------------------|
      .....       .....        .....      .....


e|--------------------------------------------|
B|--------------------------------------------|
G|--------------------------------------------|
D|---6-7-9-11----6----6----4-6-7-9-----4----4-|
A|-4-4-5-7-9-9-7-4--4-4--2-2-3-5-7-7-5-2--2-2-|
E|-2---------7-5----2----0---------5-3----0---|


e|--------------------------------------------|
B|--------------------------------------------|
G|--------------------------------------------|
D|---6-7-9-11----6----6----4-6-7-9-2---4----4-|
A|-4-4-5-7-9-9-7-4--4-4--2-2-3-5-7-0-5-2--2-2-|
E|-2---------7-5----2----0-----------3----0---|



End:
e|-------------------------|
B|-------------------------|
G|------5-6-5-3------------|
D|-5-5----------6-5-3-2-3~-|
A|-3-3---------------------|
E|-------------------------|
Comments