Misc Unsigned Bands - High Velocity - Sleepwalking Chords & Tabs

 

High Velocity - Sleepwalking Chords & Tabs

Misc Unsigned Bands Chords & Tabs

Version: 1 Type: Bass Tab 0 ratings
1 star 2 stars 3 stars 4 stars 5 stars
comments

High Velocity - Sleepwalking Bass Tab

High Velocity (Local Band)
Album: If You Only Knew
Song: Sleepwalking
Standard Tuning

G-|-9-7-5-7--5-4-5--4-2-4-2-0-----------------|    Repeat as many times 
D-|-------------------------------------------|    as needed and continue
A-|-------------------------------------------|    through the verse
E-|-------------------------------------------|

[ Tab from: http://www.guitartabs.cc/tabs/m/misc_unsigned_bands/high_velocity_sleepwalking_btab.html ]
           Chorus
G-|---------------------------------------------------------|
D-|---------------------------------------------------------|
A-|--5-(16x)------------------------------------------------|
E-|----------5-(14x)-7-7-8-(12x)-10-8-7-5-3-(8x)-2222-0000--|


           Solo (Alternate Pick Really Fast) X2
G-|-9-11-9-11-12--14-12-11-12-11-9-7-9-11-12---9-11-9-7-9------------|
D-|------------------------------------------------------------------|
A-|------------------------------------------------------------------|
E-|------------------------------------------------------------------|

           Play intro really fast with Guitar and end with:
G-|------------------|
D-|-22-222-----------|
A-|------------------|
E-|--------0~~~~~~---|
 
Intro
Verse
Chorus
Verse
Chorus
Solo 
End
Comments