Misc Unsigned Bands - High Speed Minibus - I Ate A Sandwich Off The Floor And Now I Cant Breathe Chords & Tabs

 

High Speed Minibus - I Ate A Sandwich Off The Floor And Now I Cant Breathe Chords & Tabs

Misc Unsigned Bands Chords & Tabs

Version: 1 Type: Tab 0 ratings
1 star 2 stars 3 stars 4 stars 5 stars
comments

High Speed Minibus - I Ate A Sandwich Off The Floor And Now I Cant Breathe Tab

High Speed Minibus is only a new band but the STILL ROCK!

Highspeed minibus is THE BEST

This is the Main riff and Chorus
SO FAR......

                                                                             
E||------------------------|-----------------------|------------------------|
B||------------------------|-----------------------|------------------------|
G||--0----0----0--0--0--3--|----3--3/---5--5--5----|--0----0----0--0--0--3--|
D||--0----0----0--0--0--3--|----3--3/---5--5--5----|--0----0----0--0--0--3--|
A||------------------------|-----------------------|------------------------|
E||------------------------|-----------------------|------------------------|


                                                                            
------------------------||-------------------------|-----------------------|
------------------------||-------------------------|-----------------------|
----3--3/---6--6--5--5--||*--0----0----0--0--0--3--|----3--3/---5--5--5----|
----3--3/---6--6--5--5--||*--0----0----0--0--0--3--|----3--3/---5--5--5----|
------------------------||-------------------------|-----------------------|
------------------------||-------------------------|-----------------------|


                                                                           
------------------------|-------------------------||--x----x----x----x----|
------------------------|-------------------------||--x----x----x----x----|
--0----0----0--0--0--3--|----3--3/---6--6--5--5--*||--x----x----x----x----|
--0----0----0--0--0--3--|----3--3/---6--6--5--5--*||--x----x----x----x----|
------------------------|-------------------------||--x----x----x----x----|
------------------------|-------------------------||--x----x----x----x----|

This is The Verses....100% accurate
                                                                     
--x----------------|------------------------|-----------------------|
--x----------------|------------------------|-----------------------|
--x----------------|--3----3--3--3--3----3--|--3----3--3--3/---5----|
--x----------------|--3----3--3--3--3----3--|--3----3--3--3/---3----|
--x----------------|--1----1--1--1--1----1--|--1----1--1--1/---3----|
--x----------------|------------------------|-----------------------|


                                                                           
------------------------|------------------------|------------------------|
------------------------|------------------------|------------------------|
--5----5--5--5--6----6--|--6--6--5----5--5--3----|--3----3--3--3--3----3--|
--5----5--5--5--6----6--|--6--6--5----5--5--3----|--3----3--3--3--3----3--|
--3----3--3--3--4----4--|--4--4--3----3--3--1----|--1----1--1--1--1----1--|
------------------------|------------------------|------------------------|


                                                                          
-----------------------|------------------------|------------------------|
-----------------------|------------------------|------------------------|
--3----3--3--3/---5----|--5----5--5--5--6----6--|--6--6--5----5--5--3----|
--3----3--3--3/---3----|--5----5--5--5--6----6--|--6--6--5----5--5--3----|
--1----1--1--1/---3----|--3----3--3--3--4----4--|--4--4--3----3--3--1----|
-----------------------|------------------------|------------------------|


                                                                          
------------------------|-----------------------|------------------------|
------------------------|-----------------------|------------------------|
--3----3--3--3--3----3--|--3----3--3--3/---5----|--5----5--5--5--6----6--|
--3----3--3--3--3----3--|--3----3--3--3/---3----|--5----5--5--5--6----6--|
--1----1--1--1--1----1--|--1----1--1--1/---3----|--3----3--3--3--4----4--|
------------------------|-----------------------|------------------------|


                                                                          
------------------------|------------------------|-----------------------|
------------------------|------------------------|-----------------------|
--6--6--5----5--5--3----|--3----3--3--3--3----3--|--3----3--3--3/---5----|
--6--6--5----5--5--3----|--3----3--3--3--3----3--|--3----3--3--3/---3----|
--4--4--3----3--3--1----|--1----1--1--1--1----1--|--1----1--1--1/---3----|
------------------------|------------------------|-----------------------|


                                                             
------------------------|---------------------|------|------|
------------------------|---------------------|------|------|
--5----5--5--5--6----6--|--6--6--5------------|------|------|
--5----5--5--5--6----6--|--6--6--5------------|------|------|
--3----3--3--3--4----4--|--4--4--3------------|------|------|
------------------------|---------------------|------|------|
[ Tab from: http://www.guitartabs.cc/tabs/m/misc_unsigned_bands/high_speed_minibus_i_ate_a_sandwich_off_the_floor_and_now_i_cant_breathe_tab.html ]
CHOURUS #2
                                                                          
------------------------|-----------------------|------------------------|
------------------------|-----------------------|------------------------|
--0----0----0--0--0--3--|----3--3/---5--5--5----|--0----0----0--0--0--3--|
--0----0----0--0--0--3--|----3--3/---5--5--5----|--0----0----0--0--0--3--|
------------------------|-----------------------|------------------------|
------------------------|-----------------------|------------------------|


                                                                          
------------------------|------------------------|-----------------------|
------------------------|------------------------|-----------------------|
----3--3/---6--6--5--5--|--0----0----0--0--0--3--|----3--3/---5--5--5----|
----3--3/---6--6--5--5--|--0----0----0--0--0--3--|----3--3/---5--5--5----|
------------------------|------------------------|-----------------------|
------------------------|------------------------|-----------------------|


                                                                           
------------------------|------------------------|------------------------|
------------------------|------------------------|------------------------|
--0----0----0--0--0--3--|----3--3/---6--6--5--5--|--0----0----0--0--0--3--|
--0----0----0--0--0--3--|----3--3/---6--6--5--5--|--0----0----0--0--0--3--|
------------------------|------------------------|------------------------|
------------------------|------------------------|------------------------|


                                                                          
-----------------------|------------------------|------------------------|
-----------------------|------------------------|------------------------|
----3--3/---5--5--5----|--0----0----0--0--0--3--|----3--3/---6--6--5--5--|
----3--3/---5--5--5----|--0----0----0--0--0--3--|----3--3/---6--6--5--5--|
-----------------------|------------------------|------------------------|
-----------------------|------------------------|------------------------|


                                                                    
--x----x----x----x----|--x----------------|------------------------|
--x----x----x----x----|--x----------------|------------------------|
--x----x----x----x----|--x----------------|--3----3--3--3--3----3--|
--x----x----x----x----|--x----------------|--3----3--3--3--3----3--|
--x----x----x----x----|--x----------------|--1----1--1--1--1----1--|
--x----x----x----x----|--x----------------|------------------------|


                 VERSE #2                                                         
-----------------------|------------------------|------------------------|
-----------------------|------------------------|------------------------|
--3----3--3--3/---5----|--5----5--5--5--6----6--|--6--6--5----5--5--3----|
--3----3--3--3/---3----|--5----5--5--5--6----6--|--6--6--5----5--5--3----|
--1----1--1--1/---3----|--3----3--3--3--4----4--|--4--4--3----3--3--1----|
-----------------------|------------------------|------------------------|


                                                                          
------------------------|-----------------------|------------------------|
------------------------|-----------------------|------------------------|
--3----3--3--3--3----3--|--3----3--3--3/---5----|--5----5--5--5--6----6--|
--3----3--3--3--3----3--|--3----3--3--3/---3----|--5----5--5--5--6----6--|
--1----1--1--1--1----1--|--1----1--1--1/---3----|--3----3--3--3--4----4--|
------------------------|-----------------------|------------------------|


                                                                          
------------------------|------------------------|-----------------------|
------------------------|------------------------|-----------------------|
--6--6--5----5--5--3----|--3----3--3--3--3----3--|--3----3--3--3/---5----|
--6--6--5----5--5--3----|--3----3--3--3--3----3--|--3----3--3--3/---3----|
--4--4--3----3--3--1----|--1----1--1--1--1----1--|--1----1--1--1/---3----|
------------------------|------------------------|-----------------------|


                                                                           
------------------------|------------------------|------------------------|
------------------------|------------------------|------------------------|
--5----5--5--5--6----6--|--6--6--5----5--5--3----|--3----3--3--3--3----3--|
--5----5--5--5--6----6--|--6--6--5----5--5--3----|--3----3--3--3--3----3--|
--3----3--3--3--4----4--|--4--4--3----3--3--1----|--1----1--1--1--1----1--|
------------------------|------------------------|------------------------|


                                                                              
-----------------------|------------------------|---------------------|------|
-----------------------|------------------------|---------------------|------|
--3----3--3--3/---5----|--5----5--5--5--6----6--|--6--6--5------------|------|
--3----3--3--3/---3----|--5----5--5--5--6----6--|--6--6--5------------|------|
--1----1--1--1/---3----|--3----3--3--3--4----4--|--4--4--3------------|------|
-----------------------|------------------------|---------------------|------|


               
------|------||
------|------||
------|------||
------|------||
------|------||
------|------||
Comments