Misc Unsigned Bands - Hidden Soul - She Dreams Chords & Tabs

 

Hidden Soul - She Dreams Chords & Tabs

Misc Unsigned Bands Chords & Tabs

Version: 1 Type: Tab 0 ratings
1 star 2 stars 3 stars 4 stars 5 stars
comments

Hidden Soul - She Dreams Tab

Hidden Soul-She Dreams

hidden soul is a band for lehighton, PA they play all over PA and sometimes NJ. their
website is www.hiddensoul.net.This is Hidden Souls best song in my opinion.  but its
not to hard to play but its confusing so play it with the cd first. i only tabbed half
of the intro cuz the second part of the intro is too hard.

tabbed by: D...Rubin
Email: lilrubes@ptd.net
tuning: standard

Intro
[ Tab from: http://www.guitartabs.cc/tabs/m/misc_unsigned_bands/hidden_soul_she_dreams_tab.html ]
   |---------------------------------------------------------------|
   |---------------------------------------------------------------|
   |---------4-------3---------4-------2-------7-8\3-------4-------|
   |-------4-------3---------4-------2-------3-----------4---4-----|
   |-----4-------3---------4-------2-------2-----------4-------4---|
   |---3-------2-------2/4-------1-------1-----------3-----------3-|
P.M.   . . .   . . .   . . . .   . . .   . . .       . . .   . . .


|-----------------------------------------------------------------------|
|-----------------------------------------------------------------------|
|--3------3------2------2--------2--------7-8\3--------4--------3-------|
|----3------3------2------2-------------3------------4---4--------3-----|
|------3------3------2------2---------2------------4-------4--------3---|
|--------2------2------1------1-----1------------3-----------3--------2-|
     . . .  . . .  . . .  . . .     . . .        . . .   . . .    . . .

|---------------------------------------------|
|-----------------------------------2---------| This is all i know for the
|--3------3------2------2--------2--2---------| intro
|----3------3------2------2-------------------|
|------3------3------2------2-----------------|
|--------2------2------1------1---------------|
     . . .  . . .  . . .  . . .
Comments