Misc Unsigned Bands - Hidden Soul - Mannequin Chords & Tabs

 

Hidden Soul - Mannequin Chords & Tabs

Misc Unsigned Bands Chords & Tabs

Version: 1 Type: Tab 0 ratings
1 star 2 stars 3 stars 4 stars 5 stars
comments

Hidden Soul - Mannequin Tab

HIDDEN SOUL-MANNEQUIN

hidden soul is a band from lehighton,PA.  They play all over PA and NJ. their website
is www.hiddensoul.net. They mostly play at Croc Rock in allentown,PA.  This song aint
too hard to play but i am missing a couple little parts but its hard to notice it.
(note: between 3:23-3:49 in the song there is a weird sounding guitar in the backround.
i have no clue how to play that ill put this part of the song as "weird part" in the
order section)
 
INTRO              PART 1            PART 2
|---------------|  |--------------|  |------------|
|---------------|  |--------------|  |------------|
|---------------|  |--7--3--7--7--|  |----7----3--|
|--5----3----5--|  |--7--3--7--7--|  |------------|
|--5----3----5--|  |--5--5--5--5--|  |------------|
|--3----1----3--|  |--------------|  |--5----3----|

[ Tab from: http://www.guitartabs.cc/tabs/m/misc_unsigned_bands/hidden_soul_mannequin_tab.html ]
PART 3                              PART 4
|--------------------------------|  |--11h12p11h12p11h12p11h12----|
|--------------------------------|  |--------------------------12-|
|--------------------------------|  |-----------------------------|
|--7-7-7-7-7-7-7-7-7-10-10-10-9--|  |-----------------------------|
|--7-7-7-7-7-7-7-7-7-10-10-10-9--|  |-----------------------------|
|--5-5-5-5-5-5-5-5-5--8--8--8-7--|  |-----------------------------|

PART 5                                PART 6
|--11h12p11h12p11h12p11h12----13b--|  |------|
|--------------------------12------|  |------|
|----------------------------------|  |------|
|----------------------------------|  |--5-5-|
|----------------------------------|  |--5-5-|
|----------------------------------|  |--3-3-|

ORDER
--------

intro x1
part2 x1
part3 x1
part2 x1
part3 x1
part4 x2
part4 x1
part5 x1
part1 x1
part2 x1
part3 x1
part2 x1
part3 x1
part4 x1
part5 x1
(weird part) x1
part6 x1
part1 x1
part6 x3
part4 x3
part5 x1
Comments