Misc Unsigned Bands - Gutter Puppies - Run Little Tony Chords & Tabs

 

Gutter Puppies - Run Little Tony Chords & Tabs

Misc Unsigned Bands Chords & Tabs

Version: 1 Type: Tab 0 ratings
1 star 2 stars 3 stars 4 stars 5 stars
comments

Gutter Puppies - Run Little Tony Tab

This is a small band out of Houston, TX. You can hear their self-produced stuff here:
www.purevolume.com/thegutterpuppies
or
www.myspace.com/thegutterpuppies

Okaly sweetness, here's the Run Little Tony riff. Everything except the solo which is 
to write home about.

Here's the mian riff:
[ Tab from: http://www.guitartabs.cc/tabs/m/misc_unsigned_bands/gutter_puppies_run_little_tony_tab.html ]
E---------------------------------------------|
B---------------------------------------------|
G--------131----------------------------------|
D-33---3-----1-33---3-------------------------|
A-33--3--------33--3--------------------------|
E-11-----------11-----44331-------------------|

Here's the chorus riff:

E---------------------------------------------|
B---------1-----------------------------------|
G-------13-31---------------------------------|
D-33---3-----3133---3-------------------------|
A-33--3--------33--3--------------------------|
E-11-----------11-----44331111----------------|


Enjoy young ones.
Comments