Misc Unsigned Bands - Go Betty Go - Cmon Chords & Tabs

 

Go Betty Go - Cmon Chords & Tabs

Misc Unsigned Bands Chords & Tabs

Version: 2 Type: Tab 0 ratings
1 star 2 stars 3 stars 4 stars 5 stars
comments

Go Betty Go - Cmon Tab

----------------------------------------------------------------------------
			     C'mon c'mon - Go Betty Go
----------------------------------------------------------------------------
Tabbed by: Kyle a.k.a. mediocre90
Email: K_Feldpausch@yahoo.com

Tuning: Standard (eBGDAE)
~ let ring
/ slide up
\ slide down

INTRO (play twice)
e|-----------------------------------------------------------------|----|
B|-----------------------------------------------------------------|----|
G|o---------------------------------------------------------------o|----|
D|o----------9-7-6------------------------7-5-4-------------------o|-2~-|
A|----7-777--------------6/7\6/7---5-555---------------4/5\4/5-----|-2~-|
E|-----------------7-777-------------------------5-555-------------|-0~-|

VERSE (strumming pattern not shown)
e|------------------------------------------------------------------------|
B|------------------------------------------------------------------------|
G|------------4-------6--------2-------4----------------------------------|
D|-2--------2-4-------6--------2-------4----------------------------------|
A|-2--------2-2-------4--------0-------2----------------------------------|
E|-0--------0-------------------------------------------------------------|

Chorus (same chords as verse. Strumming pattern not shown)
e|------------------------------------------------------------------------|
B|------------------------------------------------------------------------|
G|----------4-------6--------2-------4------------------------------------|
D|-2--------4-------6--------2-------4------------------------------------|
A|-2--------2-------4--------0-------2------------------------------------|
E|-0----------------------------------------------------------------------|
[ Tab from: http://www.guitartabs.cc/tabs/m/misc_unsigned_bands/go_betty_go_cmon_tab_ver_2.html ]
Breakdown riff
e|----------------------------------------------------------------------|
B|----------------------------------------------------------------------|
G|--6~----4~----2~------------------------------------------------------|
D|--6~----4~----2~------------------------------------------------------|
A|--4~----2~----0~------------------------------------------------------|
E|----------------------------------------------------------------------|

 (strumming not shown)
e|----------------------------------------------------------------------|
B|----------------------------------------------------------------------|
G|--6----4----2----4----2-----------------------------------------------|
D|--6----4----2----4----2-----------------------------------------------|
A|--4----2----0----2----0-----------------------------------------------|
E|----------------------------------------------------------------------|

SOLO (play twice)
e|-----------------------------------------------------------------|
B|-----------------------------------------------------------------|
G|o----------------------------------------------------------------|
D|o-----------66677799-----------------------------44455577--------|
A|--77777777-------------------6676------55555555------------------|
E|--------------------77777777------975----------------------------|

e|-------------------------|----|
B|-------------------------|----|
G|------------------------o|----|
D|------------------------o|-2~-|
A|----7----7----99776------|-2~-|
E|-55---55---77-------97---|-0~-|

 then just let these chords ring
e|------------------------------------------------------|
B|------------------------------------------------------|
G|-------4~---6~---2~---4~------------------------------|
D|--2~---4~---6~---2~---4~------------------------------|
A|--2~---2~---4~---0~---2~------------------------------|
E|--0~--------------------------------------------------|

This is the little thing played at the end over and over agian
e|------------------------------------------------------------------|
B|--7-9-7-9-9/10-9--------------------------------------------------|
G|------------------------------------------------------------------|
D|------------------------------------------------------------------|
A|------------------------------------------------------------------|
E|------------------------------------------------------------------|

===============================================================================
Comments