Misc Unsigned Bands - Gentic Wuz - Take Control Chords & Tabs

 

Gentic Wuz - Take Control Chords & Tabs

Misc Unsigned Bands Chords & Tabs

Version: 1 Type: Bass Tab

Gentic Wuz - Take Control Bass Tab

Intro/Outtro:

(With distortion)
G|----------------|
D|---10-----10----|
A|----------------|
E|8-8---888----8--|

Chorus:

G|----------------|----------------|----------------|----------------|
D|----------------|----------------|----------------|----------------|
A|3----3-3---3----|----------------|----------------|----------------|
E|----------------|3----3-3---3----|1----1-1---1----|3----3-3---3----|

Verse:
[ Tab from: http://www.guitartabs.cc/tabs/m/misc_unsigned_bands/gentic_wuz_take_control_btab.html ]
G|----------------|----------------|----------------|----------------|
D|----------------|----------------|----------------|----------------|
A|3--------------3|----------------|3--------------3|5--------------5|
E|----------------|3--------------3|----------------|----------------|

Bridge:

G|----------------|----------------|----------------|----------------|
D|----------------|----------------|----------------|----------------|
A|3---------------|1---------------|----------------|----------------|
E|----------------|----------------|4---------------|3---------------|

It's not hard hearing when to play what... Greetings from a christian...